ISO-10303-21;
HEADER;
FILE_DESCRIPTION (( 'STEP AP203' ),
    '1' );
FILE_NAME ('BSA Cale QD Hub.STEP',
    '2024-02-11T18:16:39',
    ( '' ),
    ( '' ),
    'SwSTEP 2.0',
    'SolidWorks 2016',
    '' );
FILE_SCHEMA (( 'CONFIG_CONTROL_DESIGN' ));
ENDSEC;

DATA;
#1 = SECURITY_CLASSIFICATION ( '', '', #388 ) ;
#2 = CARTESIAN_POINT ( 'NONE',  ( 0.0000000000000000000, -21.03437500000000100, 0.0000000000000000000 ) ) ;
#3 = CARTESIAN_POINT ( 'NONE',  ( 0.0000000000000000000, -21.03437500000000100, 12.50156249999999000 ) ) ;
#4 = LINE ( 'NONE', #97, #117 ) ;
#5 = COORDINATED_UNIVERSAL_TIME_OFFSET ( 1, 0, .AHEAD. ) ;
#6 = ORIENTED_EDGE ( 'NONE', *, *, #164, .F. ) ;
#7 = LINE ( 'NONE', #75, #310 ) ;
#8 = CYLINDRICAL_SURFACE ( 'NONE', #9, 12.50156249999999000 ) ;
#9 = AXIS2_PLACEMENT_3D ( 'NONE', #394, #355, #316 ) ;
#10 = CLOSED_SHELL ( 'NONE', ( #66, #348, #326, #126, #292, #253, #381, #39, #251, #244, #311, #48 ) ) ;
#11 = EDGE_CURVE ( 'NONE', #58, #33, #344, .T. ) ;
#12 = FACE_OUTER_BOUND ( 'NONE', #93, .T. ) ;
#13 = APPROVAL_ROLE ( '' ) ;
#14 = AXIS2_PLACEMENT_3D ( 'NONE', #259, #401, #405 ) ;
#15 = DIRECTION ( 'NONE',  ( -0.0000000000000000000, 1.000000000000000000, -0.0000000000000000000 ) ) ;
#16 = CIRCLE ( 'NONE', #101, 12.50156249999999300 ) ;
#17 = CARTESIAN_POINT ( 'NONE',  ( 0.0000000000000000000, -0.3968749999999979200, 0.0000000000000000000 ) ) ;
#18 = DATE_AND_TIME ( #321, #230 ) ;
#19 = APPLICATION_CONTEXT ( 'configuration controlled 3d designs of mechanical parts and assemblies' ) ;
#20 = ORIENTED_EDGE ( 'NONE', *, *, #350, .F. ) ;
#21 = LINE ( 'NONE', #172, #137 ) ;
#22 = DIRECTION ( 'NONE',  ( -0.0000000000000000000, 1.000000000000000000, -0.0000000000000000000 ) ) ;
#23 = VERTEX_POINT ( 'NONE', #342 ) ;
#24 = CARTESIAN_POINT ( 'NONE',  ( 0.0000000000000000000, 0.0000000000000000000, 0.0000000000000000000 ) ) ;
#25 = DIRECTION ( 'NONE',  ( -0.0000000000000000000, 1.000000000000000000, -0.0000000000000000000 ) ) ;
#26 = CALENDAR_DATE ( 2024, 11, 2 ) ;
#27 = ORIENTED_EDGE ( 'NONE', *, *, #261, .T. ) ;
#28 = CARTESIAN_POINT ( 'NONE',  ( 0.0000000000000000000, -0.3968749999999979200, 0.0000000000000000000 ) ) ;
#29 = PLANE ( 'NONE',  #122 ) ;
#30 = PERSON_AND_ORGANIZATION ( #99, #98 ) ;
#31 = AXIS2_PLACEMENT_3D ( 'NONE', #233, #362, #325 ) ;
#32 = EDGE_LOOP ( 'NONE', ( #103, #409, #84, #378 ) ) ;
#33 = VERTEX_POINT ( 'NONE', #339 ) ;
#34 = VERTEX_POINT ( 'NONE', #277 ) ;
#35 = APPROVAL ( #194, 'UNSPECIFIED' ) ;
#36 = EDGE_LOOP ( 'NONE', ( #121, #312, #105, #352 ) ) ;
#37 = ORIENTED_EDGE ( 'NONE', *, *, #377, .T. ) ;
#38 = PERSON_AND_ORGANIZATION_ROLE ( 'creator' ) ;
#39 = ADVANCED_FACE ( 'NONE', ( #151, #161 ), #226, .T. ) ;
#40 = DIRECTION ( 'NONE',  ( -0.0000000000000000000, 1.000000000000000000, -0.0000000000000000000 ) ) ;
#41 = CIRCLE ( 'NONE', #345, 8.731249999999992200 ) ;
#42 = CIRCLE ( 'NONE', #372, 12.50156249999999300 ) ;
#43 = DIRECTION ( 'NONE',  ( 0.0000000000000000000, 0.0000000000000000000, 1.000000000000000000 ) ) ;
#44 = DATE_TIME_ROLE ( 'classification_date' ) ;
#45 = CARTESIAN_POINT ( 'NONE',  ( 0.0000000000000000000, -5.953125000000003600, 0.0000000000000000000 ) ) ;
#46 = CARTESIAN_POINT ( 'NONE',  ( 0.0000000000000000000, 0.0000000000000000000, 0.0000000000000000000 ) ) ;
#47 = DIRECTION ( 'NONE',  ( 0.0000000000000000000, 0.0000000000000000000, 1.000000000000000000 ) ) ;
#48 = ADVANCED_FACE ( 'NONE', ( #242, #256 ), #380, .T. ) ;
#49 = EDGE_LOOP ( 'NONE', ( #110, #307 ) ) ;
#50 = EDGE_CURVE ( 'NONE', #349, #282, #249, .T. ) ;
#51 = CARTESIAN_POINT ( 'NONE',  ( 0.0000000000000000000, -21.03437500000000100, 0.0000000000000000000 ) ) ;
#52 = COORDINATED_UNIVERSAL_TIME_OFFSET ( 1, 0, .AHEAD. ) ;
#53 = CARTESIAN_POINT ( 'NONE',  ( 1.530999849996557500E-015, -0.3968749999999979200, -12.50156249999999300 ) ) ;
#54 = DIRECTION ( 'NONE',  ( -0.0000000000000000000, 1.000000000000000000, -0.0000000000000000000 ) ) ;
#55 = VECTOR ( 'NONE', #158, 1000.000000000000000 ) ;
#56 = DIRECTION ( 'NONE',  ( -0.0000000000000000000, 1.000000000000000000, -0.0000000000000000000 ) ) ;
#57 = FACE_OUTER_BOUND ( 'NONE', #36, .T. ) ;
#58 = VERTEX_POINT ( 'NONE', #313 ) ;
#59 = AXIS2_PLACEMENT_3D ( 'NONE', #131, #407, #170 ) ;
#60 = APPROVAL_DATE_TIME ( #83, #35 ) ;
#61 = EDGE_LOOP ( 'NONE', ( #221, #74, #402, #239 ) ) ;
#62 = DIRECTION ( 'NONE',  ( 0.0000000000000000000, 0.0000000000000000000, 1.000000000000000000 ) ) ;
#63 = FACE_OUTER_BOUND ( 'NONE', #169, .T. ) ;
#64 = EDGE_LOOP ( 'NONE', ( #243, #166 ) ) ;
#65 = EDGE_CURVE ( 'NONE', #216, #130, #187, .T. ) ;
#66 = ADVANCED_FACE ( 'NONE', ( #88 ), #8, .T. ) ;
#67 = LOCAL_TIME ( 19, 16, 39.00000000000000000, #5 ) ;
#68 = EDGE_LOOP ( 'NONE', ( #340, #90, #276, #6 ) ) ;
#69 = FACE_OUTER_BOUND ( 'NONE', #49, .T. ) ;
#70 = ORIENTED_EDGE ( 'NONE', *, *, #252, .F. ) ;
#71 = AXIS2_PLACEMENT_3D ( 'NONE', #264, #127, #174 ) ;
#72 = VECTOR ( 'NONE', #139, 1000.000000000000000 ) ;
#73 = DIRECTION ( 'NONE',  ( 0.0000000000000000000, 0.0000000000000000000, 1.000000000000000000 ) ) ;
#74 = ORIENTED_EDGE ( 'NONE', *, *, #146, .T. ) ;
#75 = CARTESIAN_POINT ( 'NONE',  ( 1.069269736505531900E-015, 37.90379213483145500, -8.731249999999992200 ) ) ;
#76 = CYLINDRICAL_SURFACE ( 'NONE', #14, 12.50156249999999300 ) ;
#77 = MECHANICAL_CONTEXT ( 'NONE', #136, 'mechanical' ) ;
#78 = DATE_AND_TIME ( #193, #387 ) ;
#79 = CARTESIAN_POINT ( 'NONE',  ( 0.0000000000000000000, 37.90379213483145500, 14.28749999999999400 ) ) ;
#80 = CARTESIAN_POINT ( 'NONE',  ( -8.731249999999992200, -2.308650567455128200E-016, 0.0000000000000000000 ) ) ;
#81 = FACE_OUTER_BOUND ( 'NONE', #260, .T. ) ;
#82 = AXIS2_PLACEMENT_3D ( 'NONE', #150, #383, #144 ) ;
#83 = DATE_AND_TIME ( #143, #162 ) ;
#84 = ORIENTED_EDGE ( 'NONE', *, *, #219, .T. ) ;
#85 = EDGE_CURVE ( 'NONE', #111, #207, #16, .T. ) ;
#86 = CYLINDRICAL_SURFACE ( 'NONE', #71, 12.50156249999999000 ) ;
#87 = AXIS2_PLACEMENT_3D ( 'NONE', #24, #267, #203 ) ;
#88 = FACE_OUTER_BOUND ( 'NONE', #309, .T. ) ;
#89 = COORDINATED_UNIVERSAL_TIME_OFFSET ( 1, 0, .AHEAD. ) ;
#90 = ORIENTED_EDGE ( 'NONE', *, *, #116, .T. ) ;
#91 = CIRCLE ( 'NONE', #222, 14.28749999999999400 ) ;
#92 = PERSON_AND_ORGANIZATION_ROLE ( 'design_supplier' ) ;
#93 = EDGE_LOOP ( 'NONE', ( #107, #96, #283, #364 ) ) ;
#94 = PERSON_AND_ORGANIZATION_ROLE ( 'creator' ) ;
#95 = LOCAL_TIME ( 19, 16, 39.00000000000000000, #52 ) ;
#96 = ORIENTED_EDGE ( 'NONE', *, *, #65, .T. ) ;
#97 = CARTESIAN_POINT ( 'NONE',  ( 1.530999849996557500E-015, 37.90379213483145500, -12.50156249999999300 ) ) ;
#98 = ORGANIZATION ( 'UNSPECIFIED', 'UNSPECIFIED', '' ) ;
#99 = PERSON ( 'UNSPECIFIED', 'UNSPECIFIED', 'UNSPECIFIED', ('UNSPECIFIED'), ('UNSPECIFIED'), ('UNSPECIFIED') ) ;
#100 = DIRECTION ( 'NONE',  ( 0.0000000000000000000, -0.0000000000000000000, -1.000000000000000000 ) ) ;
#101 = AXIS2_PLACEMENT_3D ( 'NONE', #163, #390, #43 ) ;
#102 = DIRECTION ( 'NONE',  ( -0.0000000000000000000, 1.000000000000000000, -0.0000000000000000000 ) ) ;
#103 = ORIENTED_EDGE ( 'NONE', *, *, #377, .F. ) ;
#104 = CARTESIAN_POINT ( 'NONE',  ( 0.0000000000000000000, -21.03437500000000100, 8.731249999999992200 ) ) ;
#105 = ORIENTED_EDGE ( 'NONE', *, *, #191, .T. ) ;
#106 = DIRECTION ( 'NONE',  ( -0.0000000000000000000, 1.000000000000000000, -0.0000000000000000000 ) ) ;
#107 = ORIENTED_EDGE ( 'NONE', *, *, #146, .F. ) ;
#108 = MANIFOLD_SOLID_BREP ( 'Révolution1', #10 ) ;
#109 = PRODUCT_DEFINITION_FORMATION_WITH_SPECIFIED_SOURCE ( 'ANY', '', #315, .NOT_KNOWN. ) ;
#110 = ORIENTED_EDGE ( 'NONE', *, *, #275, .T. ) ;
#111 = VERTEX_POINT ( 'NONE', #357 ) ;
#112 = LINE ( 'NONE', #241, #72 ) ;
#113 = CIRCLE ( 'NONE', #209, 14.28749999999999400 ) ;
#114 = AXIS2_PLACEMENT_3D ( 'NONE', #141, #140, #213 ) ;
#115 = ORIENTED_EDGE ( 'NONE', *, *, #116, .F. ) ;
#116 = EDGE_CURVE ( 'NONE', #33, #145, #318, .T. ) ;
#117 = VECTOR ( 'NONE', #288, 1000.000000000000000 ) ;
#118 = APPLICATION_PROTOCOL_DEFINITION ( 'international standard', 'config_control_design', 1994, #19 ) ;
#119 = VECTOR ( 'NONE', #330, 1000.000000000000000 ) ;
#120 = DIRECTION ( 'NONE',  ( 0.0000000000000000000, 0.0000000000000000000, 1.000000000000000000 ) ) ;
#121 = ORIENTED_EDGE ( 'NONE', *, *, #173, .F. ) ;
#122 = AXIS2_PLACEMENT_3D ( 'NONE', #80, #302, #271 ) ;
#123 = CC_DESIGN_PERSON_AND_ORGANIZATION_ASSIGNMENT ( #329, #94, ( #109 ) ) ;
#124 = DIRECTION ( 'NONE',  ( 0.0000000000000000000, 0.0000000000000000000, 1.000000000000000000 ) ) ;
#125 = APPLICATION_PROTOCOL_DEFINITION ( 'international standard', 'config_control_design', 1994, #136 ) ;
#126 = ADVANCED_FACE ( 'NONE', ( #81 ), #389, .F. ) ;
#127 = DIRECTION ( 'NONE',  ( -0.0000000000000000000, 1.000000000000000000, -0.0000000000000000000 ) ) ;
#128 = APPROVAL_PERSON_ORGANIZATION ( #30, #258, #13 ) ;
#129 = DIRECTION ( 'NONE',  ( -0.0000000000000000000, 1.000000000000000000, -0.0000000000000000000 ) ) ;
#130 = VERTEX_POINT ( 'NONE', #196 ) ;
#131 = CARTESIAN_POINT ( 'NONE',  ( 0.0000000000000000000, -21.03437500000000100, 0.0000000000000000000 ) ) ;
#132 = SHAPE_DEFINITION_REPRESENTATION ( #393, #274 ) ;
#133 = DIRECTION ( 'NONE',  ( -0.0000000000000000000, 1.000000000000000000, -0.0000000000000000000 ) ) ;
#134 =( GEOMETRIC_REPRESENTATION_CONTEXT ( 3 ) GLOBAL_UNCERTAINTY_ASSIGNED_CONTEXT ( ( #406 ) ) GLOBAL_UNIT_ASSIGNED_CONTEXT ( ( #327, #206, #328 ) ) REPRESENTATION_CONTEXT ( 'NONE', 'WORKASPACE' ) );
#135 = DIRECTION ( 'NONE',  ( -0.0000000000000000000, 1.000000000000000000, -0.0000000000000000000 ) ) ;
#136 = APPLICATION_CONTEXT ( 'configuration controlled 3d designs of mechanical parts and assemblies' ) ;
#137 = VECTOR ( 'NONE', #135, 1000.000000000000000 ) ;
#138 = ORIENTED_EDGE ( 'NONE', *, *, #50, .F. ) ;
#139 = DIRECTION ( 'NONE',  ( -0.0000000000000000000, 1.000000000000000000, -0.0000000000000000000 ) ) ;
#140 = DIRECTION ( 'NONE',  ( -0.0000000000000000000, 1.000000000000000000, -0.0000000000000000000 ) ) ;
#141 = CARTESIAN_POINT ( 'NONE',  ( 0.0000000000000000000, 37.90379213483145500, 0.0000000000000000000 ) ) ;
#142 = AXIS2_PLACEMENT_3D ( 'NONE', #333, #227, #100 ) ;
#143 = CALENDAR_DATE ( 2024, 11, 2 ) ;
#144 = DIRECTION ( 'NONE',  ( 0.0000000000000000000, -0.0000000000000000000, -1.000000000000000000 ) ) ;
#145 = VERTEX_POINT ( 'NONE', #201 ) ;
#146 = EDGE_CURVE ( 'NONE', #216, #111, #4, .T. ) ;
#147 = LINE ( 'NONE', #273, #263 ) ;
#148 = ORIENTED_EDGE ( 'NONE', *, *, #11, .F. ) ;
#149 = EDGE_CURVE ( 'NONE', #282, #349, #294, .T. ) ;
#150 = CARTESIAN_POINT ( 'NONE',  ( -12.50156249999999000, -21.03437500000000100, 0.0000000000000000000 ) ) ;
#151 = FACE_OUTER_BOUND ( 'NONE', #254, .T. ) ;
#152 = APPROVAL_PERSON_ORGANIZATION ( #250, #35, #353 ) ;
#153 = ORIENTED_EDGE ( 'NONE', *, *, #154, .T. ) ;
#154 = EDGE_CURVE ( 'NONE', #386, #23, #41, .T. ) ;
#155 = CYLINDRICAL_SURFACE ( 'NONE', #285, 14.28749999999999400 ) ;
#156 = AXIS2_PLACEMENT_3D ( 'NONE', #331, #234, #293 ) ;
#157 = DIRECTION ( 'NONE',  ( 0.0000000000000000000, 0.0000000000000000000, 1.000000000000000000 ) ) ;
#158 = DIRECTION ( 'NONE',  ( -0.0000000000000000000, 1.000000000000000000, -0.0000000000000000000 ) ) ;
#159 = APPROVAL_PERSON_ORGANIZATION ( #269, #199, #322 ) ;
#160 = DIRECTION ( 'NONE',  ( 0.0000000000000000000, 0.0000000000000000000, 1.000000000000000000 ) ) ;
#161 = FACE_BOUND ( 'NONE', #183, .T. ) ;
#162 = LOCAL_TIME ( 19, 16, 39.00000000000000000, #337 ) ;
#163 = CARTESIAN_POINT ( 'NONE',  ( 0.0000000000000000000, 0.0000000000000000000, 0.0000000000000000000 ) ) ;
#164 = EDGE_CURVE ( 'NONE', #58, #360, #368, .T. ) ;
#165 = CARTESIAN_POINT ( 'NONE',  ( 0.0000000000000000000, 37.90379213483145500, 0.0000000000000000000 ) ) ;
#166 = ORIENTED_EDGE ( 'NONE', *, *, #149, .T. ) ;
#167 = CARTESIAN_POINT ( 'NONE',  ( 0.0000000000000000000, -0.3968749999999979200, 0.0000000000000000000 ) ) ;
#168 = CARTESIAN_POINT ( 'NONE',  ( 0.0000000000000000000, -5.953125000000003600, 0.0000000000000000000 ) ) ;
#169 = EDGE_LOOP ( 'NONE', ( #148, #179 ) ) ;
#170 = DIRECTION ( 'NONE',  ( 0.0000000000000000000, 0.0000000000000000000, 1.000000000000000000 ) ) ;
#171 = CYLINDRICAL_SURFACE ( 'NONE', #220, 12.50156249999999300 ) ;
#172 = CARTESIAN_POINT ( 'NONE',  ( 0.0000000000000000000, 37.90379213483145500, 8.731249999999992200 ) ) ;
#173 = EDGE_CURVE ( 'NONE', #382, #282, #112, .T. ) ;
#174 = DIRECTION ( 'NONE',  ( 0.0000000000000000000, 0.0000000000000000000, 1.000000000000000000 ) ) ;
#175 = DIRECTION ( 'NONE',  ( -0.0000000000000000000, 1.000000000000000000, -0.0000000000000000000 ) ) ;
#176 = DIRECTION ( 'NONE',  ( 0.0000000000000000000, 0.0000000000000000000, 1.000000000000000000 ) ) ;
#177 = AXIS2_PLACEMENT_3D ( 'NONE', #45, #398, #120 ) ;
#178 = DIRECTION ( 'NONE',  ( -0.0000000000000000000, 1.000000000000000000, -0.0000000000000000000 ) ) ;
#179 = ORIENTED_EDGE ( 'NONE', *, *, #404, .F. ) ;
#180 = CC_DESIGN_DATE_AND_TIME_ASSIGNMENT ( #78, #44, ( #1 ) ) ;
#181 = APPROVAL_DATE_TIME ( #308, #258 ) ;
#182 = PRODUCT_RELATED_PRODUCT_CATEGORY ( 'detail', '', ( #315 ) ) ;
#183 = EDGE_LOOP ( 'NONE', ( #323, #195 ) ) ;
#184 = CIRCLE ( 'NONE', #59, 12.50156249999999000 ) ;
#185 = ORIENTED_EDGE ( 'NONE', *, *, #236, .F. ) ;
#186 = AXIS2_PLACEMENT_3D ( 'NONE', #237, #102, #361 ) ;
#187 = CIRCLE ( 'NONE', #280, 12.50156249999999300 ) ;
#188 = EDGE_CURVE ( 'NONE', #130, #216, #42, .T. ) ;
#189 = ORIENTED_EDGE ( 'NONE', *, *, #305, .F. ) ;
#190 = EDGE_LOOP ( 'NONE', ( #153, #204 ) ) ;
#191 = EDGE_CURVE ( 'NONE', #265, #349, #147, .T. ) ;
#192 = CARTESIAN_POINT ( 'NONE',  ( 1.749714114281780200E-015, 37.90379213483145500, -14.28749999999999400 ) ) ;
#193 = CALENDAR_DATE ( 2024, 11, 2 ) ;
#194 = APPROVAL_STATUS ( 'not_yet_approved' ) ;
#195 = ORIENTED_EDGE ( 'NONE', *, *, #65, .F. ) ;
#196 = CARTESIAN_POINT ( 'NONE',  ( 0.0000000000000000000, -0.3968749999999979200, 12.50156249999999300 ) ) ;
#197 = EDGE_CURVE ( 'NONE', #130, #207, #238, .T. ) ;
#198 = APPROVAL_STATUS ( 'not_yet_approved' ) ;
#199 = APPROVAL ( #198, 'UNSPECIFIED' ) ;
#200 = DIRECTION ( 'NONE',  ( -0.0000000000000000000, 1.000000000000000000, -0.0000000000000000000 ) ) ;
#201 = CARTESIAN_POINT ( 'NONE',  ( 1.749714114281780200E-015, -0.3968749999999979200, -14.28749999999999400 ) ) ;
#202 = CC_DESIGN_SECURITY_CLASSIFICATION ( #1, ( #109 ) ) ;
#203 = DIRECTION ( 'NONE',  ( 1.000000000000000000, 0.0000000000000000000, 0.0000000000000000000 ) ) ;
#204 = ORIENTED_EDGE ( 'NONE', *, *, #257, .T. ) ;
#205 = EDGE_CURVE ( 'NONE', #218, #34, #217, .T. ) ;
#206 =( NAMED_UNIT ( * ) PLANE_ANGLE_UNIT ( ) SI_UNIT ( $, .RADIAN. ) );
#207 = VERTEX_POINT ( 'NONE', #270 ) ;
#208 = DIRECTION ( 'NONE',  ( 0.0000000000000000000, 0.0000000000000000000, 1.000000000000000000 ) ) ;
#209 = AXIS2_PLACEMENT_3D ( 'NONE', #324, #106, #73 ) ;
#210 = VECTOR ( 'NONE', #175, 1000.000000000000000 ) ;
#211 = FACE_OUTER_BOUND ( 'NONE', #32, .T. ) ;
#212 = ORIENTED_EDGE ( 'NONE', *, *, #404, .T. ) ;
#213 = DIRECTION ( 'NONE',  ( 0.0000000000000000000, 0.0000000000000000000, 1.000000000000000000 ) ) ;
#214 = AXIS2_PLACEMENT_3D ( 'NONE', #235, #178, #160 ) ;
#215 = PERSON_AND_ORGANIZATION ( #99, #98 ) ;
#216 = VERTEX_POINT ( 'NONE', #53 ) ;
#217 = CIRCLE ( 'NONE', #396, 8.731249999999992200 ) ;
#218 = VERTEX_POINT ( 'NONE', #365 ) ;
#219 = EDGE_CURVE ( 'NONE', #386, #218, #21, .T. ) ;
#220 = AXIS2_PLACEMENT_3D ( 'NONE', #165, #54, #176 ) ;
#221 = ORIENTED_EDGE ( 'NONE', *, *, #188, .T. ) ;
#222 = AXIS2_PLACEMENT_3D ( 'NONE', #167, #363, #47 ) ;
#223 = CIRCLE ( 'NONE', #229, 8.731249999999992200 ) ;
#224 = CARTESIAN_POINT ( 'NONE',  ( 0.0000000000000000000, 37.90379213483145500, 0.0000000000000000000 ) ) ;
#225 = EDGE_LOOP ( 'NONE', ( #298, #70 ) ) ;
#226 = PLANE ( 'NONE',  #31 ) ;
#227 = DIRECTION ( 'NONE',  ( 0.0000000000000000000, -1.000000000000000000, 0.0000000000000000000 ) ) ;
#228 = PERSON_AND_ORGANIZATION_ROLE ( 'classification_officer' ) ;
#229 = AXIS2_PLACEMENT_3D ( 'NONE', #370, #336, #374 ) ;
#230 = LOCAL_TIME ( 19, 16, 39.00000000000000000, #89 ) ;
#231 = CARTESIAN_POINT ( 'NONE',  ( 1.530999849996557500E-015, -5.953125000000003600, -12.50156249999999300 ) ) ;
#232 = EDGE_LOOP ( 'NONE', ( #115, #212, #278, #189 ) ) ;
#233 = CARTESIAN_POINT ( 'NONE',  ( -12.50156249999999300, -0.3968750000000003100, 0.0000000000000000000 ) ) ;
#234 = DIRECTION ( 'NONE',  ( -0.0000000000000000000, 1.000000000000000000, -0.0000000000000000000 ) ) ;
#235 = CARTESIAN_POINT ( 'NONE',  ( 0.0000000000000000000, -21.03437500000000100, 0.0000000000000000000 ) ) ;
#236 = EDGE_CURVE ( 'NONE', #265, #382, #255, .T. ) ;
#237 = CARTESIAN_POINT ( 'NONE',  ( 0.0000000000000000000, 37.90379213483145500, 0.0000000000000000000 ) ) ;
#238 = LINE ( 'NONE', #335, #119 ) ;
#239 = ORIENTED_EDGE ( 'NONE', *, *, #197, .F. ) ;
#240 = DIRECTION ( 'NONE',  ( 0.0000000000000000000, 0.0000000000000000000, 1.000000000000000000 ) ) ;
#241 = CARTESIAN_POINT ( 'NONE',  ( 1.530999849996557100E-015, 37.90379213483145500, -12.50156249999999000 ) ) ;
#242 = FACE_BOUND ( 'NONE', #190, .T. ) ;
#243 = ORIENTED_EDGE ( 'NONE', *, *, #50, .T. ) ;
#244 = ADVANCED_FACE ( 'NONE', ( #371, #63 ), #299, .T. ) ;
#245 = DESIGN_CONTEXT ( 'detailed design', #19, 'design' ) ;
#246 = CYLINDRICAL_SURFACE ( 'NONE', #186, 8.731249999999992200 ) ;
#247 = AXIS2_PLACEMENT_3D ( 'NONE', #46, #129, #240 ) ;
#248 = DATE_AND_TIME ( #26, #95 ) ;
#249 = CIRCLE ( 'NONE', #177, 12.50156249999999100 ) ;
#250 = PERSON_AND_ORGANIZATION ( #99, #98 ) ;
#251 = ADVANCED_FACE ( 'NONE', ( #391 ), #385, .T. ) ;
#252 = EDGE_CURVE ( 'NONE', #34, #218, #223, .T. ) ;
#253 = ADVANCED_FACE ( 'NONE', ( #69, #297 ), #29, .T. ) ;
#254 = EDGE_LOOP ( 'NONE', ( #27, #334 ) ) ;
#255 = CIRCLE ( 'NONE', #214, 12.50156249999999000 ) ;
#256 = FACE_OUTER_BOUND ( 'NONE', #392, .T. ) ;
#257 = EDGE_CURVE ( 'NONE', #23, #386, #286, .T. ) ;
#258 = APPROVAL ( #314, 'UNSPECIFIED' ) ;
#259 = CARTESIAN_POINT ( 'NONE',  ( 0.0000000000000000000, 37.90379213483145500, 0.0000000000000000000 ) ) ;
#260 = EDGE_LOOP ( 'NONE', ( #304, #37, #356, #287 ) ) ;
#261 = EDGE_CURVE ( 'NONE', #360, #145, #113, .T. ) ;
#262 = DIRECTION ( 'NONE',  ( 0.0000000000000000000, 0.0000000000000000000, 1.000000000000000000 ) ) ;
#263 = VECTOR ( 'NONE', #266, 1000.000000000000000 ) ;
#264 = CARTESIAN_POINT ( 'NONE',  ( 0.0000000000000000000, 37.90379213483145500, 0.0000000000000000000 ) ) ;
#265 = VERTEX_POINT ( 'NONE', #3 ) ;
#266 = DIRECTION ( 'NONE',  ( -0.0000000000000000000, 1.000000000000000000, -0.0000000000000000000 ) ) ;
#267 = DIRECTION ( 'NONE',  ( 0.0000000000000000000, 0.0000000000000000000, 1.000000000000000000 ) ) ;
#268 = CC_DESIGN_APPROVAL ( #35, ( #109 ) ) ;
#269 = PERSON_AND_ORGANIZATION ( #99, #98 ) ;
#270 = CARTESIAN_POINT ( 'NONE',  ( 0.0000000000000000000, 0.0000000000000000000, 12.50156249999999300 ) ) ;
#271 = DIRECTION ( 'NONE',  ( 0.0000000000000000000, 0.0000000000000000000, 1.000000000000000000 ) ) ;
#272 = ORIENTED_EDGE ( 'NONE', *, *, #236, .T. ) ;
#273 = CARTESIAN_POINT ( 'NONE',  ( 0.0000000000000000000, 37.90379213483145500, 12.50156249999999000 ) ) ;
#274 = ADVANCED_BREP_SHAPE_REPRESENTATION ( 'BSA Cale QD Hub', ( #108, #87 ), #134 ) ;
#275 = EDGE_CURVE ( 'NONE', #207, #111, #351, .T. ) ;
#276 = ORIENTED_EDGE ( 'NONE', *, *, #261, .F. ) ;
#277 = CARTESIAN_POINT ( 'NONE',  ( 1.069269736505531900E-015, 0.0000000000000000000, -8.731249999999992200 ) ) ;
#278 = ORIENTED_EDGE ( 'NONE', *, *, #164, .T. ) ;
#279 = ORIENTED_EDGE ( 'NONE', *, *, #173, .T. ) ;
#280 = AXIS2_PLACEMENT_3D ( 'NONE', #17, #15, #358 ) ;
#281 = CC_DESIGN_PERSON_AND_ORGANIZATION_ASSIGNMENT ( #215, #228, ( #1 ) ) ;
#282 = VERTEX_POINT ( 'NONE', #231 ) ;
#283 = ORIENTED_EDGE ( 'NONE', *, *, #197, .T. ) ;
#284 = ORIENTED_EDGE ( 'NONE', *, *, #191, .F. ) ;
#285 = AXIS2_PLACEMENT_3D ( 'NONE', #296, #359, #262 ) ;
#286 = CIRCLE ( 'NONE', #338, 8.731249999999992200 ) ;
#287 = ORIENTED_EDGE ( 'NONE', *, *, #219, .F. ) ;
#288 = DIRECTION ( 'NONE',  ( -0.0000000000000000000, 1.000000000000000000, -0.0000000000000000000 ) ) ;
#289 = AXIS2_PLACEMENT_3D ( 'NONE', #168, #403, #157 ) ;
#290 = CIRCLE ( 'NONE', #156, 14.28749999999999400 ) ;
#291 = CARTESIAN_POINT ( 'NONE',  ( 1.530999849996557100E-015, -21.03437500000000100, -12.50156249999999000 ) ) ;
#292 = ADVANCED_FACE ( 'NONE', ( #211 ), #246, .F. ) ;
#293 = DIRECTION ( 'NONE',  ( 0.0000000000000000000, 0.0000000000000000000, 1.000000000000000000 ) ) ;
#294 = CIRCLE ( 'NONE', #317, 12.50156249999999100 ) ;
#295 = DIRECTION ( 'NONE',  ( -0.0000000000000000000, 1.000000000000000000, -0.0000000000000000000 ) ) ;
#296 = CARTESIAN_POINT ( 'NONE',  ( 0.0000000000000000000, 37.90379213483145500, 0.0000000000000000000 ) ) ;
#297 = FACE_BOUND ( 'NONE', #225, .T. ) ;
#298 = ORIENTED_EDGE ( 'NONE', *, *, #205, .F. ) ;
#299 = PLANE ( 'NONE',  #142 ) ;
#300 = AXIS2_PLACEMENT_3D ( 'NONE', #224, #40, #124 ) ;
#301 = DIRECTION ( 'NONE',  ( 0.0000000000000000000, 0.0000000000000000000, 1.000000000000000000 ) ) ;
#302 = DIRECTION ( 'NONE',  ( -0.0000000000000000000, 1.000000000000000000, 0.0000000000000000000 ) ) ;
#303 = CC_DESIGN_PERSON_AND_ORGANIZATION_ASSIGNMENT ( #376, #395, ( #315 ) ) ;
#304 = ORIENTED_EDGE ( 'NONE', *, *, #257, .F. ) ;
#305 = EDGE_CURVE ( 'NONE', #145, #360, #91, .T. ) ;
#306 = FACE_OUTER_BOUND ( 'NONE', #68, .T. ) ;
#307 = ORIENTED_EDGE ( 'NONE', *, *, #85, .T. ) ;
#308 = DATE_AND_TIME ( #346, #67 ) ;
#309 = EDGE_LOOP ( 'NONE', ( #272, #279, #138, #284 ) ) ;
#310 = VECTOR ( 'NONE', #22, 1000.000000000000000 ) ;
#311 = ADVANCED_FACE ( 'NONE', ( #57 ), #86, .T. ) ;
#312 = ORIENTED_EDGE ( 'NONE', *, *, #350, .T. ) ;
#313 = CARTESIAN_POINT ( 'NONE',  ( 0.0000000000000000000, -5.953125000000003600, 14.28749999999999400 ) ) ;
#314 = APPROVAL_STATUS ( 'not_yet_approved' ) ;
#315 = PRODUCT ( 'BSA Cale QD Hub', 'BSA Cale QD Hub', '', ( #77 ) ) ;
#316 = DIRECTION ( 'NONE',  ( 0.0000000000000000000, 0.0000000000000000000, 1.000000000000000000 ) ) ;
#317 = AXIS2_PLACEMENT_3D ( 'NONE', #320, #200, #62 ) ;
#318 = LINE ( 'NONE', #192, #55 ) ;
#319 = CC_DESIGN_PERSON_AND_ORGANIZATION_ASSIGNMENT ( #399, #38, ( #332 ) ) ;
#320 = CARTESIAN_POINT ( 'NONE',  ( 0.0000000000000000000, -5.953125000000003600, 0.0000000000000000000 ) ) ;
#321 = CALENDAR_DATE ( 2024, 11, 2 ) ;
#322 = APPROVAL_ROLE ( '' ) ;
#323 = ORIENTED_EDGE ( 'NONE', *, *, #188, .F. ) ;
#324 = CARTESIAN_POINT ( 'NONE',  ( 0.0000000000000000000, -0.3968749999999979200, 0.0000000000000000000 ) ) ;
#325 = DIRECTION ( 'NONE',  ( 0.0000000000000000000, 0.0000000000000000000, 1.000000000000000000 ) ) ;
#326 = ADVANCED_FACE ( 'NONE', ( #341 ), #76, .T. ) ;
#327 =( LENGTH_UNIT ( ) NAMED_UNIT ( * ) SI_UNIT ( .MILLI., .METRE. ) );
#328 =( NAMED_UNIT ( * ) SI_UNIT ( $, .STERADIAN. ) SOLID_ANGLE_UNIT ( ) );
#329 = PERSON_AND_ORGANIZATION ( #99, #98 ) ;
#330 = DIRECTION ( 'NONE',  ( -0.0000000000000000000, 1.000000000000000000, -0.0000000000000000000 ) ) ;
#331 = CARTESIAN_POINT ( 'NONE',  ( 0.0000000000000000000, -5.953125000000003600, 0.0000000000000000000 ) ) ;
#332 = PRODUCT_DEFINITION ( 'UNKNOWN', '', #109, #245 ) ;
#333 = CARTESIAN_POINT ( 'NONE',  ( -14.28749999999999400, -5.953125000000000000, 0.0000000000000000000 ) ) ;
#334 = ORIENTED_EDGE ( 'NONE', *, *, #305, .T. ) ;
#335 = CARTESIAN_POINT ( 'NONE',  ( 0.0000000000000000000, 37.90379213483145500, 12.50156249999999300 ) ) ;
#336 = DIRECTION ( 'NONE',  ( -0.0000000000000000000, 1.000000000000000000, -0.0000000000000000000 ) ) ;
#337 = COORDINATED_UNIVERSAL_TIME_OFFSET ( 1, 0, .AHEAD. ) ;
#338 = AXIS2_PLACEMENT_3D ( 'NONE', #51, #25, #366 ) ;
#339 = CARTESIAN_POINT ( 'NONE',  ( 1.749714114281780200E-015, -5.953125000000003600, -14.28749999999999400 ) ) ;
#340 = ORIENTED_EDGE ( 'NONE', *, *, #11, .T. ) ;
#341 = FACE_OUTER_BOUND ( 'NONE', #61, .T. ) ;
#342 = CARTESIAN_POINT ( 'NONE',  ( 1.069269736505531900E-015, -21.03437500000000100, -8.731249999999992200 ) ) ;
#343 = APPROVAL_DATE_TIME ( #248, #199 ) ;
#344 = CIRCLE ( 'NONE', #289, 14.28749999999999400 ) ;
#345 = AXIS2_PLACEMENT_3D ( 'NONE', #2, #56, #369 ) ;
#346 = CALENDAR_DATE ( 2024, 11, 2 ) ;
#347 = CC_DESIGN_APPROVAL ( #199, ( #1 ) ) ;
#348 = ADVANCED_FACE ( 'NONE', ( #306 ), #155, .T. ) ;
#349 = VERTEX_POINT ( 'NONE', #367 ) ;
#350 = EDGE_CURVE ( 'NONE', #382, #265, #184, .T. ) ;
#351 = CIRCLE ( 'NONE', #247, 12.50156249999999300 ) ;
#352 = ORIENTED_EDGE ( 'NONE', *, *, #149, .F. ) ;
#353 = APPROVAL_ROLE ( '' ) ;
#354 = CC_DESIGN_DATE_AND_TIME_ASSIGNMENT ( #18, #397, ( #332 ) ) ;
#355 = DIRECTION ( 'NONE',  ( -0.0000000000000000000, 1.000000000000000000, -0.0000000000000000000 ) ) ;
#356 = ORIENTED_EDGE ( 'NONE', *, *, #252, .T. ) ;
#357 = CARTESIAN_POINT ( 'NONE',  ( 1.530999849996557500E-015, 0.0000000000000000000, -12.50156249999999300 ) ) ;
#358 = DIRECTION ( 'NONE',  ( 0.0000000000000000000, 0.0000000000000000000, 1.000000000000000000 ) ) ;
#359 = DIRECTION ( 'NONE',  ( -0.0000000000000000000, 1.000000000000000000, -0.0000000000000000000 ) ) ;
#360 = VERTEX_POINT ( 'NONE', #400 ) ;
#361 = DIRECTION ( 'NONE',  ( 0.0000000000000000000, 0.0000000000000000000, 1.000000000000000000 ) ) ;
#362 = DIRECTION ( 'NONE',  ( -0.0000000000000000000, 1.000000000000000000, 0.0000000000000000000 ) ) ;
#363 = DIRECTION ( 'NONE',  ( -0.0000000000000000000, 1.000000000000000000, -0.0000000000000000000 ) ) ;
#364 = ORIENTED_EDGE ( 'NONE', *, *, #85, .F. ) ;
#365 = CARTESIAN_POINT ( 'NONE',  ( 0.0000000000000000000, 0.0000000000000000000, 8.731249999999992200 ) ) ;
#366 = DIRECTION ( 'NONE',  ( 0.0000000000000000000, 0.0000000000000000000, 1.000000000000000000 ) ) ;
#367 = CARTESIAN_POINT ( 'NONE',  ( 0.0000000000000000000, -5.953125000000003600, 12.50156249999999100 ) ) ;
#368 = LINE ( 'NONE', #79, #210 ) ;
#369 = DIRECTION ( 'NONE',  ( 0.0000000000000000000, 0.0000000000000000000, 1.000000000000000000 ) ) ;
#370 = CARTESIAN_POINT ( 'NONE',  ( 0.0000000000000000000, 0.0000000000000000000, 0.0000000000000000000 ) ) ;
#371 = FACE_BOUND ( 'NONE', #64, .T. ) ;
#372 = AXIS2_PLACEMENT_3D ( 'NONE', #28, #295, #301 ) ;
#373 = CARTESIAN_POINT ( 'NONE',  ( 0.0000000000000000000, 0.0000000000000000000, 0.0000000000000000000 ) ) ;
#374 = DIRECTION ( 'NONE',  ( 0.0000000000000000000, 0.0000000000000000000, 1.000000000000000000 ) ) ;
#375 = CC_DESIGN_APPROVAL ( #258, ( #332 ) ) ;
#376 = PERSON_AND_ORGANIZATION ( #99, #98 ) ;
#377 = EDGE_CURVE ( 'NONE', #23, #34, #7, .T. ) ;
#378 = ORIENTED_EDGE ( 'NONE', *, *, #205, .T. ) ;
#379 = COORDINATED_UNIVERSAL_TIME_OFFSET ( 1, 0, .AHEAD. ) ;
#380 = PLANE ( 'NONE',  #82 ) ;
#381 = ADVANCED_FACE ( 'NONE', ( #12 ), #171, .T. ) ;
#382 = VERTEX_POINT ( 'NONE', #291 ) ;
#383 = DIRECTION ( 'NONE',  ( 0.0000000000000000000, -1.000000000000000000, 0.0000000000000000000 ) ) ;
#384 = CC_DESIGN_PERSON_AND_ORGANIZATION_ASSIGNMENT ( #408, #92, ( #109 ) ) ;
#385 = CYLINDRICAL_SURFACE ( 'NONE', #114, 14.28749999999999400 ) ;
#386 = VERTEX_POINT ( 'NONE', #104 ) ;
#387 = LOCAL_TIME ( 19, 16, 39.00000000000000000, #379 ) ;
#388 = SECURITY_CLASSIFICATION_LEVEL ( 'unclassified' ) ;
#389 = CYLINDRICAL_SURFACE ( 'NONE', #300, 8.731249999999992200 ) ;
#390 = DIRECTION ( 'NONE',  ( -0.0000000000000000000, 1.000000000000000000, -0.0000000000000000000 ) ) ;
#391 = FACE_OUTER_BOUND ( 'NONE', #232, .T. ) ;
#392 = EDGE_LOOP ( 'NONE', ( #185, #20 ) ) ;
#393 = PRODUCT_DEFINITION_SHAPE ( 'NONE', 'NONE',  #332 ) ;
#394 = CARTESIAN_POINT ( 'NONE',  ( 0.0000000000000000000, 37.90379213483145500, 0.0000000000000000000 ) ) ;
#395 = PERSON_AND_ORGANIZATION_ROLE ( 'design_owner' ) ;
#396 = AXIS2_PLACEMENT_3D ( 'NONE', #373, #133, #208 ) ;
#397 = DATE_TIME_ROLE ( 'creation_date' ) ;
#398 = DIRECTION ( 'NONE',  ( -0.0000000000000000000, 1.000000000000000000, -0.0000000000000000000 ) ) ;
#399 = PERSON_AND_ORGANIZATION ( #99, #98 ) ;
#400 = CARTESIAN_POINT ( 'NONE',  ( 0.0000000000000000000, -0.3968749999999979200, 14.28749999999999400 ) ) ;
#401 = DIRECTION ( 'NONE',  ( -0.0000000000000000000, 1.000000000000000000, -0.0000000000000000000 ) ) ;
#402 = ORIENTED_EDGE ( 'NONE', *, *, #275, .F. ) ;
#403 = DIRECTION ( 'NONE',  ( -0.0000000000000000000, 1.000000000000000000, -0.0000000000000000000 ) ) ;
#404 = EDGE_CURVE ( 'NONE', #33, #58, #290, .T. ) ;
#405 = DIRECTION ( 'NONE',  ( 0.0000000000000000000, 0.0000000000000000000, 1.000000000000000000 ) ) ;
#406 = UNCERTAINTY_MEASURE_WITH_UNIT (LENGTH_MEASURE( 1.000000000000000100E-005 ), #327, 'distance_accuracy_value', 'NONE');
#407 = DIRECTION ( 'NONE',  ( -0.0000000000000000000, 1.000000000000000000, -0.0000000000000000000 ) ) ;
#408 = PERSON_AND_ORGANIZATION ( #99, #98 ) ;
#409 = ORIENTED_EDGE ( 'NONE', *, *, #154, .F. ) ;
ENDSEC;
END-ISO-10303-21;
