ISO-10303-21;
HEADER;
/* Generated by software containing ST-Developer
 * from STEP Tools, Inc. (www.steptools.com) 
 */

FILE_DESCRIPTION(
/* description */ ('TAQUET DE REGLAGE M8'),
/* implementation_level */ '2;1');

FILE_NAME(
/* name */ 
'C:\\Users\\Public\\Documents\\Autodesk\\Inventor 2022\\Espace de trav
ail\\Perso\\F006.stp',
/* time_stamp */ '2024-02-08T13:53:36+01:00',
/* author */ ('vvernier'),
/* organization */ (''),
/* preprocessor_version */ 'ST-DEVELOPER v18.1',
/* originating_system */ 'Autodesk Inventor 2022',
/* authorisation */ '');

FILE_SCHEMA (('AUTOMOTIVE_DESIGN { 1 0 10303 214 3 1 1 }'));
ENDSEC;

DATA;
#10=MECHANICAL_DESIGN_GEOMETRIC_PRESENTATION_REPRESENTATION('',(#13),#531);
#11=SHAPE_REPRESENTATION_RELATIONSHIP('SRR','None',#538,#12);
#12=ADVANCED_BREP_SHAPE_REPRESENTATION('',(#14),#530);
#13=STYLED_ITEM('',(#547),#14);
#14=MANIFOLD_SOLID_BREP('Solide1',#310);
#15=CYLINDRICAL_SURFACE('',#344,3.3235);
#16=CYLINDRICAL_SURFACE('',#349,5.);
#17=CYLINDRICAL_SURFACE('',#350,2.75);
#18=CYLINDRICAL_SURFACE('',#355,5.);
#19=CYLINDRICAL_SURFACE('',#356,2.75);
#20=FACE_BOUND('',#57,.T.);
#21=FACE_BOUND('',#59,.T.);
#22=FACE_BOUND('',#60,.T.);
#23=FACE_BOUND('',#68,.T.);
#24=FACE_BOUND('',#72,.T.);
#25=FACE_BOUND('',#76,.T.);
#26=FACE_BOUND('',#78,.T.);
#27=FACE_BOUND('',#79,.T.);
#28=CIRCLE('',#335,3.3235);
#29=CIRCLE('',#337,5.);
#30=CIRCLE('',#338,5.);
#31=CIRCLE('',#345,3.3235);
#32=CIRCLE('',#347,5.);
#33=CIRCLE('',#348,2.75);
#34=CIRCLE('',#351,2.75);
#35=CIRCLE('',#353,5.);
#36=CIRCLE('',#354,2.75);
#37=CIRCLE('',#357,2.75);
#38=FACE_OUTER_BOUND('',#55,.T.);
#39=FACE_OUTER_BOUND('',#56,.T.);
#40=FACE_OUTER_BOUND('',#58,.T.);
#41=FACE_OUTER_BOUND('',#61,.T.);
#42=FACE_OUTER_BOUND('',#62,.T.);
#43=FACE_OUTER_BOUND('',#63,.T.);
#44=FACE_OUTER_BOUND('',#64,.T.);
#45=FACE_OUTER_BOUND('',#65,.T.);
#46=FACE_OUTER_BOUND('',#66,.T.);
#47=FACE_OUTER_BOUND('',#67,.T.);
#48=FACE_OUTER_BOUND('',#69,.T.);
#49=FACE_OUTER_BOUND('',#70,.T.);
#50=FACE_OUTER_BOUND('',#71,.T.);
#51=FACE_OUTER_BOUND('',#73,.T.);
#52=FACE_OUTER_BOUND('',#74,.T.);
#53=FACE_OUTER_BOUND('',#75,.T.);
#54=FACE_OUTER_BOUND('',#77,.T.);
#55=EDGE_LOOP('',(#203,#204,#205,#206));
#56=EDGE_LOOP('',(#207,#208,#209,#210));
#57=EDGE_LOOP('',(#211));
#58=EDGE_LOOP('',(#212,#213,#214,#215,#216,#217,#218,#219));
#59=EDGE_LOOP('',(#220));
#60=EDGE_LOOP('',(#221));
#61=EDGE_LOOP('',(#222,#223,#224,#225));
#62=EDGE_LOOP('',(#226,#227,#228,#229));
#63=EDGE_LOOP('',(#230,#231,#232,#233));
#64=EDGE_LOOP('',(#234,#235,#236,#237));
#65=EDGE_LOOP('',(#238,#239,#240,#241));
#66=EDGE_LOOP('',(#242,#243,#244,#245));
#67=EDGE_LOOP('',(#246));
#68=EDGE_LOOP('',(#247));
#69=EDGE_LOOP('',(#248,#249,#250,#251));
#70=EDGE_LOOP('',(#252,#253,#254,#255));
#71=EDGE_LOOP('',(#256));
#72=EDGE_LOOP('',(#257));
#73=EDGE_LOOP('',(#258,#259,#260,#261));
#74=EDGE_LOOP('',(#262,#263,#264,#265));
#75=EDGE_LOOP('',(#266,#267,#268,#269));
#76=EDGE_LOOP('',(#270));
#77=EDGE_LOOP('',(#271,#272,#273,#274,#275,#276,#277,#278));
#78=EDGE_LOOP('',(#279));
#79=EDGE_LOOP('',(#280));
#80=LINE('',#449,#109);
#81=LINE('',#451,#110);
#82=LINE('',#453,#111);
#83=LINE('',#454,#112);
#84=LINE('',#457,#113);
#85=LINE('',#459,#114);
#86=LINE('',#460,#115);
#87=LINE('',#465,#116);
#88=LINE('',#467,#117);
#89=LINE('',#469,#118);
#90=LINE('',#471,#119);
#91=LINE('',#473,#120);
#92=LINE('',#474,#121);
#93=LINE('',#481,#122);
#94=LINE('',#482,#123);
#95=LINE('',#485,#124);
#96=LINE('',#486,#125);
#97=LINE('',#489,#126);
#98=LINE('',#491,#127);
#99=LINE('',#492,#128);
#100=LINE('',#494,#129);
#101=LINE('',#497,#130);
#102=LINE('',#498,#131);
#103=LINE('',#502,#132);
#104=LINE('',#509,#133);
#105=LINE('',#512,#134);
#106=LINE('',#520,#135);
#107=LINE('',#523,#136);
#108=LINE('',#526,#137);
#109=VECTOR('',#364,10.);
#110=VECTOR('',#365,10.);
#111=VECTOR('',#366,10.);
#112=VECTOR('',#367,10.);
#113=VECTOR('',#370,10.);
#114=VECTOR('',#371,10.);
#115=VECTOR('',#372,10.);
#116=VECTOR('',#377,10.);
#117=VECTOR('',#378,10.);
#118=VECTOR('',#379,10.);
#119=VECTOR('',#380,10.);
#120=VECTOR('',#381,10.);
#121=VECTOR('',#382,10.);
#122=VECTOR('',#389,10.);
#123=VECTOR('',#390,10.);
#124=VECTOR('',#393,10.);
#125=VECTOR('',#394,10.);
#126=VECTOR('',#397,10.);
#127=VECTOR('',#398,10.);
#128=VECTOR('',#399,10.);
#129=VECTOR('',#402,10.);
#130=VECTOR('',#405,10.);
#131=VECTOR('',#406,10.);
#132=VECTOR('',#411,3.3235);
#133=VECTOR('',#420,5.);
#134=VECTOR('',#423,2.75);
#135=VECTOR('',#434,5.);
#136=VECTOR('',#437,2.75);
#137=VECTOR('',#442,10.);
#138=VERTEX_POINT('',#447);
#139=VERTEX_POINT('',#448);
#140=VERTEX_POINT('',#450);
#141=VERTEX_POINT('',#452);
#142=VERTEX_POINT('',#456);
#143=VERTEX_POINT('',#458);
#144=VERTEX_POINT('',#461);
#145=VERTEX_POINT('',#464);
#146=VERTEX_POINT('',#466);
#147=VERTEX_POINT('',#468);
#148=VERTEX_POINT('',#470);
#149=VERTEX_POINT('',#472);
#150=VERTEX_POINT('',#475);
#151=VERTEX_POINT('',#477);
#152=VERTEX_POINT('',#480);
#153=VERTEX_POINT('',#484);
#154=VERTEX_POINT('',#488);
#155=VERTEX_POINT('',#490);
#156=VERTEX_POINT('',#496);
#157=VERTEX_POINT('',#500);
#158=VERTEX_POINT('',#504);
#159=VERTEX_POINT('',#506);
#160=VERTEX_POINT('',#511);
#161=VERTEX_POINT('',#515);
#162=VERTEX_POINT('',#517);
#163=VERTEX_POINT('',#522);
#164=EDGE_CURVE('',#138,#139,#80,.T.);
#165=EDGE_CURVE('',#139,#140,#81,.T.);
#166=EDGE_CURVE('',#140,#141,#82,.T.);
#167=EDGE_CURVE('',#141,#138,#83,.T.);
#168=EDGE_CURVE('',#142,#141,#84,.T.);
#169=EDGE_CURVE('',#143,#142,#85,.T.);
#170=EDGE_CURVE('',#138,#143,#86,.T.);
#171=EDGE_CURVE('',#144,#144,#28,.T.);
#172=EDGE_CURVE('',#145,#140,#87,.T.);
#173=EDGE_CURVE('',#146,#145,#88,.T.);
#174=EDGE_CURVE('',#147,#146,#89,.T.);
#175=EDGE_CURVE('',#148,#147,#90,.T.);
#176=EDGE_CURVE('',#149,#148,#91,.T.);
#177=EDGE_CURVE('',#142,#149,#92,.T.);
#178=EDGE_CURVE('',#150,#150,#29,.T.);
#179=EDGE_CURVE('',#151,#151,#30,.T.);
#180=EDGE_CURVE('',#149,#152,#93,.T.);
#181=EDGE_CURVE('',#152,#143,#94,.T.);
#182=EDGE_CURVE('',#153,#148,#95,.T.);
#183=EDGE_CURVE('',#153,#152,#96,.T.);
#184=EDGE_CURVE('',#145,#154,#97,.T.);
#185=EDGE_CURVE('',#154,#155,#98,.T.);
#186=EDGE_CURVE('',#155,#146,#99,.T.);
#187=EDGE_CURVE('',#139,#154,#100,.T.);
#188=EDGE_CURVE('',#156,#153,#101,.T.);
#189=EDGE_CURVE('',#147,#156,#102,.T.);
#190=EDGE_CURVE('',#157,#157,#31,.T.);
#191=EDGE_CURVE('',#157,#144,#103,.T.);
#192=EDGE_CURVE('',#158,#158,#32,.T.);
#193=EDGE_CURVE('',#159,#159,#33,.T.);
#194=EDGE_CURVE('',#150,#158,#104,.T.);
#195=EDGE_CURVE('',#159,#160,#105,.T.);
#196=EDGE_CURVE('',#160,#160,#34,.T.);
#197=EDGE_CURVE('',#161,#161,#35,.T.);
#198=EDGE_CURVE('',#162,#162,#36,.T.);
#199=EDGE_CURVE('',#151,#161,#106,.T.);
#200=EDGE_CURVE('',#162,#163,#107,.T.);
#201=EDGE_CURVE('',#163,#163,#37,.T.);
#202=EDGE_CURVE('',#156,#155,#108,.T.);
#203=ORIENTED_EDGE('',*,*,#164,.T.);
#204=ORIENTED_EDGE('',*,*,#165,.T.);
#205=ORIENTED_EDGE('',*,*,#166,.T.);
#206=ORIENTED_EDGE('',*,*,#167,.T.);
#207=ORIENTED_EDGE('',*,*,#167,.F.);
#208=ORIENTED_EDGE('',*,*,#168,.F.);
#209=ORIENTED_EDGE('',*,*,#169,.F.);
#210=ORIENTED_EDGE('',*,*,#170,.F.);
#211=ORIENTED_EDGE('',*,*,#171,.T.);
#212=ORIENTED_EDGE('',*,*,#166,.F.);
#213=ORIENTED_EDGE('',*,*,#172,.F.);
#214=ORIENTED_EDGE('',*,*,#173,.F.);
#215=ORIENTED_EDGE('',*,*,#174,.F.);
#216=ORIENTED_EDGE('',*,*,#175,.F.);
#217=ORIENTED_EDGE('',*,*,#176,.F.);
#218=ORIENTED_EDGE('',*,*,#177,.F.);
#219=ORIENTED_EDGE('',*,*,#168,.T.);
#220=ORIENTED_EDGE('',*,*,#178,.T.);
#221=ORIENTED_EDGE('',*,*,#179,.T.);
#222=ORIENTED_EDGE('',*,*,#177,.T.);
#223=ORIENTED_EDGE('',*,*,#180,.T.);
#224=ORIENTED_EDGE('',*,*,#181,.T.);
#225=ORIENTED_EDGE('',*,*,#169,.T.);
#226=ORIENTED_EDGE('',*,*,#180,.F.);
#227=ORIENTED_EDGE('',*,*,#176,.T.);
#228=ORIENTED_EDGE('',*,*,#182,.F.);
#229=ORIENTED_EDGE('',*,*,#183,.T.);
#230=ORIENTED_EDGE('',*,*,#173,.T.);
#231=ORIENTED_EDGE('',*,*,#184,.T.);
#232=ORIENTED_EDGE('',*,*,#185,.T.);
#233=ORIENTED_EDGE('',*,*,#186,.T.);
#234=ORIENTED_EDGE('',*,*,#165,.F.);
#235=ORIENTED_EDGE('',*,*,#187,.T.);
#236=ORIENTED_EDGE('',*,*,#184,.F.);
#237=ORIENTED_EDGE('',*,*,#172,.T.);
#238=ORIENTED_EDGE('',*,*,#188,.T.);
#239=ORIENTED_EDGE('',*,*,#182,.T.);
#240=ORIENTED_EDGE('',*,*,#175,.T.);
#241=ORIENTED_EDGE('',*,*,#189,.T.);
#242=ORIENTED_EDGE('',*,*,#190,.F.);
#243=ORIENTED_EDGE('',*,*,#191,.T.);
#244=ORIENTED_EDGE('',*,*,#171,.F.);
#245=ORIENTED_EDGE('',*,*,#191,.F.);
#246=ORIENTED_EDGE('',*,*,#192,.T.);
#247=ORIENTED_EDGE('',*,*,#193,.F.);
#248=ORIENTED_EDGE('',*,*,#178,.F.);
#249=ORIENTED_EDGE('',*,*,#194,.T.);
#250=ORIENTED_EDGE('',*,*,#192,.F.);
#251=ORIENTED_EDGE('',*,*,#194,.F.);
#252=ORIENTED_EDGE('',*,*,#193,.T.);
#253=ORIENTED_EDGE('',*,*,#195,.T.);
#254=ORIENTED_EDGE('',*,*,#196,.F.);
#255=ORIENTED_EDGE('',*,*,#195,.F.);
#256=ORIENTED_EDGE('',*,*,#197,.T.);
#257=ORIENTED_EDGE('',*,*,#198,.F.);
#258=ORIENTED_EDGE('',*,*,#179,.F.);
#259=ORIENTED_EDGE('',*,*,#199,.T.);
#260=ORIENTED_EDGE('',*,*,#197,.F.);
#261=ORIENTED_EDGE('',*,*,#199,.F.);
#262=ORIENTED_EDGE('',*,*,#198,.T.);
#263=ORIENTED_EDGE('',*,*,#200,.T.);
#264=ORIENTED_EDGE('',*,*,#201,.F.);
#265=ORIENTED_EDGE('',*,*,#200,.F.);
#266=ORIENTED_EDGE('',*,*,#186,.F.);
#267=ORIENTED_EDGE('',*,*,#202,.F.);
#268=ORIENTED_EDGE('',*,*,#189,.F.);
#269=ORIENTED_EDGE('',*,*,#174,.T.);
#270=ORIENTED_EDGE('',*,*,#190,.T.);
#271=ORIENTED_EDGE('',*,*,#164,.F.);
#272=ORIENTED_EDGE('',*,*,#170,.T.);
#273=ORIENTED_EDGE('',*,*,#181,.F.);
#274=ORIENTED_EDGE('',*,*,#183,.F.);
#275=ORIENTED_EDGE('',*,*,#188,.F.);
#276=ORIENTED_EDGE('',*,*,#202,.T.);
#277=ORIENTED_EDGE('',*,*,#185,.F.);
#278=ORIENTED_EDGE('',*,*,#187,.F.);
#279=ORIENTED_EDGE('',*,*,#196,.T.);
#280=ORIENTED_EDGE('',*,*,#201,.T.);
#281=PLANE('',#333);
#282=PLANE('',#334);
#283=PLANE('',#336);
#284=PLANE('',#339);
#285=PLANE('',#340);
#286=PLANE('',#341);
#287=PLANE('',#342);
#288=PLANE('',#343);
#289=PLANE('',#346);
#290=PLANE('',#352);
#291=PLANE('',#358);
#292=PLANE('',#359);
#293=ADVANCED_FACE('',(#38),#281,.T.);
#294=ADVANCED_FACE('',(#39,#20),#282,.T.);
#295=ADVANCED_FACE('',(#40,#21,#22),#283,.T.);
#296=ADVANCED_FACE('',(#41),#284,.T.);
#297=ADVANCED_FACE('',(#42),#285,.T.);
#298=ADVANCED_FACE('',(#43),#286,.T.);
#299=ADVANCED_FACE('',(#44),#287,.T.);
#300=ADVANCED_FACE('',(#45),#288,.T.);
#301=ADVANCED_FACE('',(#46),#15,.F.);
#302=ADVANCED_FACE('',(#47,#23),#289,.T.);
#303=ADVANCED_FACE('',(#48),#16,.F.);
#304=ADVANCED_FACE('',(#49),#17,.F.);
#305=ADVANCED_FACE('',(#50,#24),#290,.T.);
#306=ADVANCED_FACE('',(#51),#18,.F.);
#307=ADVANCED_FACE('',(#52),#19,.F.);
#308=ADVANCED_FACE('',(#53,#25),#291,.T.);
#309=ADVANCED_FACE('',(#54,#26,#27),#292,.T.);
#310=CLOSED_SHELL('',(#293,#294,#295,#296,#297,#298,#299,#300,#301,#302,
#303,#304,#305,#306,#307,#308,#309));
#311=DERIVED_UNIT_ELEMENT(#314,1.);
#312=DERIVED_UNIT_ELEMENT(#533,-3.);
#313=DIMENSIONAL_EXPONENTS(1.,0.,0.,0.,0.,0.,0.);
#314=(
CONVERSION_BASED_UNIT('gram',#316)
MASS_UNIT()
NAMED_UNIT(#313)
);
#315=(
MASS_UNIT()
NAMED_UNIT(*)
SI_UNIT(.KILO.,.GRAM.)
);
#316=MASS_MEASURE_WITH_UNIT(MASS_MEASURE(0.001),#315);
#317=DERIVED_UNIT((#311,#312));
#318=MEASURE_REPRESENTATION_ITEM('density measure',
POSITIVE_RATIO_MEASURE(7.85),#317);
#319=PROPERTY_DEFINITION_REPRESENTATION(#324,#321);
#320=PROPERTY_DEFINITION_REPRESENTATION(#325,#322);
#321=REPRESENTATION('material name',(#323),#530);
#322=REPRESENTATION('density',(#318),#530);
#323=DESCRIPTIVE_REPRESENTATION_ITEM('Acier A37','Acier A37');
#324=PROPERTY_DEFINITION('material property','material name',#540);
#325=PROPERTY_DEFINITION('material property','density of part',#540);
#326=DATE_TIME_ROLE('creation_date');
#327=APPLIED_DATE_AND_TIME_ASSIGNMENT(#328,#326,(#540));
#328=DATE_AND_TIME(#329,#330);
#329=CALENDAR_DATE(2023,19,12);
#330=LOCAL_TIME(0,0,0.,#331);
#331=COORDINATED_UNIVERSAL_TIME_OFFSET(0,0,.BEHIND.);
#332=AXIS2_PLACEMENT_3D('placement',#445,#360,#361);
#333=AXIS2_PLACEMENT_3D('',#446,#362,#363);
#334=AXIS2_PLACEMENT_3D('',#455,#368,#369);
#335=AXIS2_PLACEMENT_3D('',#462,#373,#374);
#336=AXIS2_PLACEMENT_3D('',#463,#375,#376);
#337=AXIS2_PLACEMENT_3D('',#476,#383,#384);
#338=AXIS2_PLACEMENT_3D('',#478,#385,#386);
#339=AXIS2_PLACEMENT_3D('',#479,#387,#388);
#340=AXIS2_PLACEMENT_3D('',#483,#391,#392);
#341=AXIS2_PLACEMENT_3D('',#487,#395,#396);
#342=AXIS2_PLACEMENT_3D('',#493,#400,#401);
#343=AXIS2_PLACEMENT_3D('',#495,#403,#404);
#344=AXIS2_PLACEMENT_3D('',#499,#407,#408);
#345=AXIS2_PLACEMENT_3D('',#501,#409,#410);
#346=AXIS2_PLACEMENT_3D('',#503,#412,#413);
#347=AXIS2_PLACEMENT_3D('',#505,#414,#415);
#348=AXIS2_PLACEMENT_3D('',#507,#416,#417);
#349=AXIS2_PLACEMENT_3D('',#508,#418,#419);
#350=AXIS2_PLACEMENT_3D('',#510,#421,#422);
#351=AXIS2_PLACEMENT_3D('',#513,#424,#425);
#352=AXIS2_PLACEMENT_3D('',#514,#426,#427);
#353=AXIS2_PLACEMENT_3D('',#516,#428,#429);
#354=AXIS2_PLACEMENT_3D('',#518,#430,#431);
#355=AXIS2_PLACEMENT_3D('',#519,#432,#433);
#356=AXIS2_PLACEMENT_3D('',#521,#435,#436);
#357=AXIS2_PLACEMENT_3D('',#524,#438,#439);
#358=AXIS2_PLACEMENT_3D('',#525,#440,#441);
#359=AXIS2_PLACEMENT_3D('',#527,#443,#444);
#360=DIRECTION('axis',(0.,0.,1.));
#361=DIRECTION('refdir',(1.,0.,0.));
#362=DIRECTION('center_axis',(-0.707106781186548,-1.96261557335472E-16,
0.707106781186548));
#363=DIRECTION('ref_axis',(0.707106781186548,0.,0.707106781186548));
#364=DIRECTION('',(0.707106781186548,3.89680225305972E-16,0.707106781186548));
#365=DIRECTION('',(-2.77555756156289E-16,1.,0.));
#366=DIRECTION('',(-0.707106781186548,-3.92523114670944E-16,-0.707106781186548));
#367=DIRECTION('',(2.77555756156289E-16,-1.,0.));
#368=DIRECTION('center_axis',(-1.,-2.77555756156289E-16,0.));
#369=DIRECTION('ref_axis',(2.77555756156289E-16,-1.,0.));
#370=DIRECTION('',(0.,0.,1.));
#371=DIRECTION('',(-2.77555756156289E-16,1.,0.));
#372=DIRECTION('',(0.,0.,-1.));
#373=DIRECTION('center_axis',(1.,2.77555756156289E-16,0.));
#374=DIRECTION('ref_axis',(0.,0.,-1.));
#375=DIRECTION('center_axis',(-5.55111512312578E-16,1.,0.));
#376=DIRECTION('ref_axis',(-1.,-5.55111512312578E-16,0.));
#377=DIRECTION('',(-1.,-5.55111512312578E-16,0.));
#378=DIRECTION('',(-0.707106781186548,-3.92523114670944E-16,0.707106781186548));
#379=DIRECTION('',(0.,0.,1.));
#380=DIRECTION('',(0.707106781186548,3.92523114670944E-16,0.707106781186548));
#381=DIRECTION('',(1.,5.55111512312578E-16,0.));
#382=DIRECTION('',(0.707106781186548,3.92523114670944E-16,-0.707106781186548));
#383=DIRECTION('center_axis',(5.55111512312578E-16,-1.,0.));
#384=DIRECTION('ref_axis',(1.,5.55111512312578E-16,0.));
#385=DIRECTION('center_axis',(5.55111512312578E-16,-1.,0.));
#386=DIRECTION('ref_axis',(1.,5.55111512312578E-16,0.));
#387=DIRECTION('center_axis',(-0.707106781186548,-1.96261557335472E-16,
-0.707106781186548));
#388=DIRECTION('ref_axis',(-0.707106781186548,0.,0.707106781186548));
#389=DIRECTION('',(2.77555756156289E-16,-1.,0.));
#390=DIRECTION('',(-0.707106781186548,-3.89680225305972E-16,0.707106781186548));
#391=DIRECTION('center_axis',(0.,0.,-1.));
#392=DIRECTION('ref_axis',(-1.,0.,0.));
#393=DIRECTION('',(-8.32667268468868E-16,1.,0.));
#394=DIRECTION('',(-1.,-5.51091059616309E-16,0.));
#395=DIRECTION('center_axis',(0.707106781186548,5.88784672006416E-16,0.707106781186548));
#396=DIRECTION('ref_axis',(0.707106781186548,0.,-0.707106781186548));
#397=DIRECTION('',(8.32667268468868E-16,-1.,0.));
#398=DIRECTION('',(0.707106781186548,3.89680225305972E-16,-0.707106781186548));
#399=DIRECTION('',(-8.32667268468868E-16,1.,0.));
#400=DIRECTION('center_axis',(0.,0.,1.));
#401=DIRECTION('ref_axis',(1.,0.,0.));
#402=DIRECTION('',(1.,5.51091059616309E-16,0.));
#403=DIRECTION('center_axis',(0.707106781186548,5.88784672006416E-16,-0.707106781186548));
#404=DIRECTION('ref_axis',(-0.707106781186548,0.,-0.707106781186548));
#405=DIRECTION('',(-0.707106781186548,-3.89680225305972E-16,-0.707106781186548));
#406=DIRECTION('',(8.32667268468868E-16,-1.,0.));
#407=DIRECTION('center_axis',(1.,8.32667268468868E-16,0.));
#408=DIRECTION('ref_axis',(0.,0.,-1.));
#409=DIRECTION('center_axis',(-1.,-8.32667268468868E-16,0.));
#410=DIRECTION('ref_axis',(0.,0.,-1.));
#411=DIRECTION('',(-1.,-8.32667268468868E-16,0.));
#412=DIRECTION('center_axis',(-5.55111512312578E-16,1.,0.));
#413=DIRECTION('ref_axis',(1.,5.55111512312578E-16,0.));
#414=DIRECTION('center_axis',(-5.55111512312578E-16,1.,0.));
#415=DIRECTION('ref_axis',(1.,5.55111512312578E-16,0.));
#416=DIRECTION('center_axis',(-5.55111512312578E-16,1.,0.));
#417=DIRECTION('ref_axis',(1.,5.55111512312578E-16,0.));
#418=DIRECTION('center_axis',(-5.55111512312578E-16,1.,0.));
#419=DIRECTION('ref_axis',(1.,5.55111512312578E-16,0.));
#420=DIRECTION('',(5.55111512312578E-16,-1.,0.));
#421=DIRECTION('center_axis',(-5.55111512312578E-16,1.,0.));
#422=DIRECTION('ref_axis',(1.,5.55111512312578E-16,0.));
#423=DIRECTION('',(5.55111512312578E-16,-1.,0.));
#424=DIRECTION('center_axis',(-5.51091059616309E-16,1.,0.));
#425=DIRECTION('ref_axis',(1.,5.55111512312578E-16,0.));
#426=DIRECTION('center_axis',(-5.55111512312578E-16,1.,0.));
#427=DIRECTION('ref_axis',(1.,5.55111512312578E-16,0.));
#428=DIRECTION('center_axis',(-5.55111512312578E-16,1.,0.));
#429=DIRECTION('ref_axis',(1.,5.55111512312578E-16,0.));
#430=DIRECTION('center_axis',(-5.55111512312578E-16,1.,0.));
#431=DIRECTION('ref_axis',(1.,5.55111512312578E-16,0.));
#432=DIRECTION('center_axis',(-5.55111512312578E-16,1.,0.));
#433=DIRECTION('ref_axis',(1.,5.55111512312578E-16,0.));
#434=DIRECTION('',(5.55111512312578E-16,-1.,0.));
#435=DIRECTION('center_axis',(-5.55111512312578E-16,1.,0.));
#436=DIRECTION('ref_axis',(1.,5.55111512312578E-16,0.));
#437=DIRECTION('',(5.55111512312578E-16,-1.,0.));
#438=DIRECTION('center_axis',(-5.51091059616309E-16,1.,0.));
#439=DIRECTION('ref_axis',(1.,5.55111512312578E-16,0.));
#440=DIRECTION('center_axis',(1.,8.32667268468868E-16,0.));
#441=DIRECTION('ref_axis',(-8.32667268468868E-16,1.,0.));
#442=DIRECTION('',(0.,0.,1.));
#443=DIRECTION('center_axis',(5.51091059616309E-16,-1.,0.));
#444=DIRECTION('ref_axis',(1.,5.51091059616309E-16,0.));
#445=CARTESIAN_POINT('',(0.,0.,0.));
#446=CARTESIAN_POINT('Origin',(-7.00000000000001,12.,15.));
#447=CARTESIAN_POINT('',(-8.00000000000001,0.,14.));
#448=CARTESIAN_POINT('',(-6.00000000000001,1.10218211923262E-15,16.));
#449=CARTESIAN_POINT('',(-11.,-1.11022302462516E-15,11.));
#450=CARTESIAN_POINT('',(-6.00000000000001,16.,16.));
#451=CARTESIAN_POINT('',(-6.00000000000001,12.,16.));
#452=CARTESIAN_POINT('',(-8.00000000000001,16.,14.));
#453=CARTESIAN_POINT('',(-7.00000000000001,16.,15.));
#454=CARTESIAN_POINT('',(-8.00000000000001,12.,14.));
#455=CARTESIAN_POINT('Origin',(-8.00000000000001,16.,0.));
#456=CARTESIAN_POINT('',(-8.00000000000001,16.,-14.));
#457=CARTESIAN_POINT('',(-8.00000000000001,16.,0.));
#458=CARTESIAN_POINT('',(-8.00000000000001,0.,-14.));
#459=CARTESIAN_POINT('',(-8.00000000000001,12.,-14.));
#460=CARTESIAN_POINT('',(-8.00000000000001,0.,0.));
#461=CARTESIAN_POINT('',(-8.,10.,3.3235));
#462=CARTESIAN_POINT('Origin',(-8.,10.,0.));
#463=CARTESIAN_POINT('Origin',(7.99999999999999,16.,0.));
#464=CARTESIAN_POINT('',(5.99999999999999,16.,16.));
#465=CARTESIAN_POINT('',(7.99999999999999,16.,16.));
#466=CARTESIAN_POINT('',(7.99999999999999,16.,14.));
#467=CARTESIAN_POINT('',(11.,16.,11.));
#468=CARTESIAN_POINT('',(7.99999999999999,16.,-14.));
#469=CARTESIAN_POINT('',(7.99999999999999,16.,0.));
#470=CARTESIAN_POINT('',(5.99999999999999,16.,-16.));
#471=CARTESIAN_POINT('',(11.,16.,-11.));
#472=CARTESIAN_POINT('',(-6.00000000000001,16.,-16.));
#473=CARTESIAN_POINT('',(7.99999999999999,16.,-16.));
#474=CARTESIAN_POINT('',(-7.00000000000001,16.,-15.));
#475=CARTESIAN_POINT('',(-5.00000000000001,16.,10.));
#476=CARTESIAN_POINT('Origin',(-8.88178419700125E-15,16.,10.));
#477=CARTESIAN_POINT('',(-5.00000000000001,16.,-10.));
#478=CARTESIAN_POINT('Origin',(-8.88178419700125E-15,16.,-10.));
#479=CARTESIAN_POINT('Origin',(-7.00000000000001,12.,-15.));
#480=CARTESIAN_POINT('',(-6.00000000000001,1.10218211923262E-15,-16.));
#481=CARTESIAN_POINT('',(-6.00000000000001,12.,-16.));
#482=CARTESIAN_POINT('',(-11.,-1.11022302462516E-15,-11.));
#483=CARTESIAN_POINT('Origin',(-2.22044604925031E-15,8.,-16.));
#484=CARTESIAN_POINT('',(6.00000000000001,7.71527483462833E-15,-16.));
#485=CARTESIAN_POINT('',(6.,4.00000000000001,-16.));
#486=CARTESIAN_POINT('',(-8.00000000000001,0.,-16.));
#487=CARTESIAN_POINT('Origin',(7.,4.00000000000001,15.));
#488=CARTESIAN_POINT('',(6.00000000000001,7.71527483462833E-15,16.));
#489=CARTESIAN_POINT('',(6.,4.00000000000001,16.));
#490=CARTESIAN_POINT('',(8.00000000000001,8.81745695386095E-15,14.));
#491=CARTESIAN_POINT('',(7.,8.32667268468867E-15,15.));
#492=CARTESIAN_POINT('',(8.,4.00000000000001,14.));
#493=CARTESIAN_POINT('Origin',(-2.22044604925031E-15,8.,16.));
#494=CARTESIAN_POINT('',(-8.00000000000001,0.,16.));
#495=CARTESIAN_POINT('Origin',(7.,4.00000000000001,-15.));
#496=CARTESIAN_POINT('',(8.00000000000001,8.81745695386095E-15,-14.));
#497=CARTESIAN_POINT('',(7.,8.32667268468867E-15,-15.));
#498=CARTESIAN_POINT('',(8.,4.00000000000001,-14.));
#499=CARTESIAN_POINT('Origin',(-31.1918358845309,9.99999999999998,0.));
#500=CARTESIAN_POINT('',(8.,10.,3.3235));
#501=CARTESIAN_POINT('Origin',(8.,10.,0.));
#502=CARTESIAN_POINT('',(-31.1918358845309,9.99999999999998,3.3235));
#503=CARTESIAN_POINT('Origin',(-6.10622663543836E-15,11.,10.));
#504=CARTESIAN_POINT('',(-5.00000000000001,11.,10.));
#505=CARTESIAN_POINT('Origin',(-6.10622663543836E-15,11.,10.));
#506=CARTESIAN_POINT('',(-2.75000000000001,11.,10.));
#507=CARTESIAN_POINT('Origin',(-6.10622663543836E-15,11.,10.));
#508=CARTESIAN_POINT('Origin',(-7.49400541621981E-15,13.5,10.));
#509=CARTESIAN_POINT('',(-5.00000000000001,13.5,10.));
#510=CARTESIAN_POINT('Origin',(8.3266726846886E-17,-0.149999999999997,10.));
#511=CARTESIAN_POINT('',(-2.75,2.91433543964104E-15,10.));
#512=CARTESIAN_POINT('',(-2.75,-0.149999999999998,10.));
#513=CARTESIAN_POINT('Origin',(-1.4791141972894E-30,4.44089209850063E-15,
10.));
#514=CARTESIAN_POINT('Origin',(-6.10622663543836E-15,11.,-10.));
#515=CARTESIAN_POINT('',(-5.00000000000001,11.,-10.));
#516=CARTESIAN_POINT('Origin',(-6.10622663543836E-15,11.,-10.));
#517=CARTESIAN_POINT('',(-2.75000000000001,11.,-10.));
#518=CARTESIAN_POINT('Origin',(-6.10622663543836E-15,11.,-10.));
#519=CARTESIAN_POINT('Origin',(-7.49400541621981E-15,13.5,-10.));
#520=CARTESIAN_POINT('',(-5.00000000000001,13.5,-10.));
#521=CARTESIAN_POINT('Origin',(8.3266726846886E-17,-0.149999999999997,-10.));
#522=CARTESIAN_POINT('',(-2.75,2.91433543964104E-15,-10.));
#523=CARTESIAN_POINT('',(-2.75,-0.149999999999998,-10.));
#524=CARTESIAN_POINT('Origin',(-1.4791141972894E-30,4.44089209850063E-15,
-10.));
#525=CARTESIAN_POINT('Origin',(8.00000000000001,8.81745695386095E-15,0.));
#526=CARTESIAN_POINT('',(8.00000000000001,8.81745695386095E-15,0.));
#527=CARTESIAN_POINT('Origin',(-8.00000000000001,0.,0.));
#528=UNCERTAINTY_MEASURE_WITH_UNIT(LENGTH_MEASURE(0.01),#532,
'DISTANCE_ACCURACY_VALUE',
'Maximum model space distance between geometric entities at asserted c
onnectivities');
#529=UNCERTAINTY_MEASURE_WITH_UNIT(LENGTH_MEASURE(0.01),#532,
'DISTANCE_ACCURACY_VALUE',
'Maximum model space distance between geometric entities at asserted c
onnectivities');
#530=(
GEOMETRIC_REPRESENTATION_CONTEXT(3)
GLOBAL_UNCERTAINTY_ASSIGNED_CONTEXT((#528))
GLOBAL_UNIT_ASSIGNED_CONTEXT((#532,#534,#535))
REPRESENTATION_CONTEXT('','3D')
);
#531=(
GEOMETRIC_REPRESENTATION_CONTEXT(3)
GLOBAL_UNCERTAINTY_ASSIGNED_CONTEXT((#529))
GLOBAL_UNIT_ASSIGNED_CONTEXT((#532,#534,#535))
REPRESENTATION_CONTEXT('','3D')
);
#532=(
LENGTH_UNIT()
NAMED_UNIT(*)
SI_UNIT(.MILLI.,.METRE.)
);
#533=(
LENGTH_UNIT()
NAMED_UNIT(*)
SI_UNIT(.CENTI.,.METRE.)
);
#534=(
NAMED_UNIT(*)
PLANE_ANGLE_UNIT()
SI_UNIT($,.RADIAN.)
);
#535=(
NAMED_UNIT(*)
SI_UNIT($,.STERADIAN.)
SOLID_ANGLE_UNIT()
);
#536=SHAPE_DEFINITION_REPRESENTATION(#537,#538);
#537=PRODUCT_DEFINITION_SHAPE('',$,#540);
#538=SHAPE_REPRESENTATION('',(#332),#530);
#539=PRODUCT_DEFINITION_CONTEXT('part definition',#544,'design');
#540=PRODUCT_DEFINITION('F006','F006',#541,#539);
#541=PRODUCT_DEFINITION_FORMATION('',$,#546);
#542=PRODUCT_RELATED_PRODUCT_CATEGORY('F006','F006',(#546));
#543=APPLICATION_PROTOCOL_DEFINITION('international standard',
'automotive_design',2009,#544);
#544=APPLICATION_CONTEXT(
'Core Data for Automotive Mechanical Design Process');
#545=PRODUCT_CONTEXT('part definition',#544,'mechanical');
#546=PRODUCT('F006','F006','TAQUET DE REGLAGE M8',(#545));
#547=PRESENTATION_STYLE_ASSIGNMENT((#548));
#548=SURFACE_STYLE_USAGE(.BOTH.,#551);
#549=SURFACE_STYLE_RENDERING_WITH_PROPERTIES($,#555,(#550));
#550=SURFACE_STYLE_TRANSPARENT(0.);
#551=SURFACE_SIDE_STYLE('',(#552,#549));
#552=SURFACE_STYLE_FILL_AREA(#553);
#553=FILL_AREA_STYLE('',(#554));
#554=FILL_AREA_STYLE_COLOUR('',#555);
#555=COLOUR_RGB('',0.87843137254902,0.874509803921569,0.858823529411765);
ENDSEC;
END-ISO-10303-21;
