ISO-10303-21;
HEADER;
/* Generated by software containing ST-Developer
 * from STEP Tools, Inc. (www.steptools.com) 
 */

FILE_DESCRIPTION(
/* description */ ('VIS DE BUTEE REGLABLE'),
/* implementation_level */ '2;1');

FILE_NAME(
/* name */ 
'C:\\Users\\Public\\Documents\\Autodesk\\Inventor 2022\\Espace de trav
ail\\Perso\\F005.stp',
/* time_stamp */ '2024-02-08T13:53:53+01:00',
/* author */ ('vvernier'),
/* organization */ (''),
/* preprocessor_version */ 'ST-DEVELOPER v18.1',
/* originating_system */ 'Autodesk Inventor 2022',
/* authorisation */ '');

FILE_SCHEMA (('AUTOMOTIVE_DESIGN { 1 0 10303 214 3 1 1 }'));
ENDSEC;

DATA;
#10=MECHANICAL_DESIGN_GEOMETRIC_PRESENTATION_REPRESENTATION('',(#13),#471);
#11=SHAPE_REPRESENTATION_RELATIONSHIP('SRR','None',#478,#12);
#12=ADVANCED_BREP_SHAPE_REPRESENTATION('',(#14),#470);
#13=STYLED_ITEM('',(#487),#14);
#14=MANIFOLD_SOLID_BREP('Solide1',#246);
#15=TOROIDAL_SURFACE('',#297,25.,1.);
#16=TOROIDAL_SURFACE('',#306,25.,1.);
#17=FACE_BOUND('',#47,.T.);
#18=FACE_BOUND('',#50,.T.);
#19=FACE_BOUND('',#54,.T.);
#20=FACE_BOUND('',#61,.T.);
#21=PLANE('',#276);
#22=PLANE('',#280);
#23=PLANE('',#289);
#24=PLANE('',#305);
#25=CYLINDRICAL_SURFACE('',#273,20.);
#26=CYLINDRICAL_SURFACE('',#286,30.);
#27=CYLINDRICAL_SURFACE('',#295,26.);
#28=CYLINDRICAL_SURFACE('',#302,24.);
#29=FACE_OUTER_BOUND('',#44,.T.);
#30=FACE_OUTER_BOUND('',#45,.T.);
#31=FACE_OUTER_BOUND('',#46,.T.);
#32=FACE_OUTER_BOUND('',#48,.T.);
#33=FACE_OUTER_BOUND('',#49,.T.);
#34=FACE_OUTER_BOUND('',#51,.T.);
#35=FACE_OUTER_BOUND('',#52,.T.);
#36=FACE_OUTER_BOUND('',#53,.T.);
#37=FACE_OUTER_BOUND('',#55,.T.);
#38=FACE_OUTER_BOUND('',#56,.T.);
#39=FACE_OUTER_BOUND('',#57,.T.);
#40=FACE_OUTER_BOUND('',#58,.T.);
#41=FACE_OUTER_BOUND('',#59,.T.);
#42=FACE_OUTER_BOUND('',#60,.T.);
#43=FACE_OUTER_BOUND('',#62,.T.);
#44=EDGE_LOOP('',(#160,#161,#162,#163,#164));
#45=EDGE_LOOP('',(#165,#166,#167,#168,#169,#170));
#46=EDGE_LOOP('',(#171));
#47=EDGE_LOOP('',(#172));
#48=EDGE_LOOP('',(#173,#174,#175,#176,#177));
#49=EDGE_LOOP('',(#178));
#50=EDGE_LOOP('',(#179));
#51=EDGE_LOOP('',(#180,#181,#182,#183,#184));
#52=EDGE_LOOP('',(#185,#186,#187,#188,#189,#190));
#53=EDGE_LOOP('',(#191));
#54=EDGE_LOOP('',(#192));
#55=EDGE_LOOP('',(#193,#194,#195,#196,#197));
#56=EDGE_LOOP('',(#198,#199,#200,#201,#202));
#57=EDGE_LOOP('',(#203,#204,#205,#206,#207));
#58=EDGE_LOOP('',(#208,#209,#210,#211,#212));
#59=EDGE_LOOP('',(#213,#214,#215,#216,#217,#218));
#60=EDGE_LOOP('',(#219));
#61=EDGE_LOOP('',(#220));
#62=EDGE_LOOP('',(#221,#222,#223,#224,#225));
#63=LINE('',#402,#72);
#64=LINE('',#411,#73);
#65=LINE('',#417,#74);
#66=LINE('',#428,#75);
#67=LINE('',#435,#76);
#68=LINE('',#440,#77);
#69=LINE('',#446,#78);
#70=LINE('',#450,#79);
#71=LINE('',#464,#80);
#72=VECTOR('',#314,20.5);
#73=VECTOR('',#325,20.);
#74=VECTOR('',#332,20.5);
#75=VECTOR('',#345,29.5);
#76=VECTOR('',#354,30.);
#77=VECTOR('',#361,29.5);
#78=VECTOR('',#368,25.5);
#79=VECTOR('',#373,26.);
#80=VECTOR('',#390,24.);
#81=CIRCLE('',#270,21.);
#82=CIRCLE('',#271,20.);
#83=CIRCLE('',#272,20.);
#84=CIRCLE('',#274,20.);
#85=CIRCLE('',#275,20.);
#86=CIRCLE('',#277,25.);
#87=CIRCLE('',#279,21.);
#88=CIRCLE('',#281,29.);
#89=CIRCLE('',#283,30.);
#90=CIRCLE('',#284,30.);
#91=CIRCLE('',#285,29.);
#92=CIRCLE('',#287,30.);
#93=CIRCLE('',#288,30.);
#94=CIRCLE('',#290,25.);
#95=CIRCLE('',#293,26.);
#96=CIRCLE('',#294,26.);
#97=CIRCLE('',#296,26.);
#98=CIRCLE('',#298,25.);
#99=CIRCLE('',#299,1.);
#100=CIRCLE('',#300,24.);
#101=CIRCLE('',#301,24.);
#102=CIRCLE('',#303,24.);
#103=CIRCLE('',#304,24.);
#104=CIRCLE('',#307,1.);
#105=VERTEX_POINT('',#399);
#106=VERTEX_POINT('',#401);
#107=VERTEX_POINT('',#403);
#108=VERTEX_POINT('',#407);
#109=VERTEX_POINT('',#408);
#110=VERTEX_POINT('',#413);
#111=VERTEX_POINT('',#416);
#112=VERTEX_POINT('',#420);
#113=VERTEX_POINT('',#423);
#114=VERTEX_POINT('',#424);
#115=VERTEX_POINT('',#427);
#116=VERTEX_POINT('',#431);
#117=VERTEX_POINT('',#432);
#118=VERTEX_POINT('',#437);
#119=VERTEX_POINT('',#442);
#120=VERTEX_POINT('',#443);
#121=VERTEX_POINT('',#448);
#122=VERTEX_POINT('',#452);
#123=VERTEX_POINT('',#454);
#124=VERTEX_POINT('',#456);
#125=VERTEX_POINT('',#460);
#126=VERTEX_POINT('',#461);
#127=EDGE_CURVE('',#105,#105,#81,.T.);
#128=EDGE_CURVE('',#105,#106,#63,.T.);
#129=EDGE_CURVE('',#106,#107,#82,.T.);
#130=EDGE_CURVE('',#107,#106,#83,.T.);
#131=EDGE_CURVE('',#108,#109,#84,.T.);
#132=EDGE_CURVE('',#109,#108,#85,.T.);
#133=EDGE_CURVE('',#109,#107,#64,.T.);
#134=EDGE_CURVE('',#110,#110,#86,.T.);
#135=EDGE_CURVE('',#108,#111,#65,.T.);
#136=EDGE_CURVE('',#111,#111,#87,.T.);
#137=EDGE_CURVE('',#112,#112,#88,.T.);
#138=EDGE_CURVE('',#113,#114,#89,.T.);
#139=EDGE_CURVE('',#114,#113,#90,.T.);
#140=EDGE_CURVE('',#113,#115,#66,.T.);
#141=EDGE_CURVE('',#115,#115,#91,.T.);
#142=EDGE_CURVE('',#116,#117,#92,.T.);
#143=EDGE_CURVE('',#117,#116,#93,.T.);
#144=EDGE_CURVE('',#117,#114,#67,.T.);
#145=EDGE_CURVE('',#118,#118,#94,.T.);
#146=EDGE_CURVE('',#112,#116,#68,.T.);
#147=EDGE_CURVE('',#119,#120,#95,.T.);
#148=EDGE_CURVE('',#120,#119,#96,.T.);
#149=EDGE_CURVE('',#119,#110,#69,.T.);
#150=EDGE_CURVE('',#121,#121,#97,.T.);
#151=EDGE_CURVE('',#121,#120,#70,.T.);
#152=EDGE_CURVE('',#122,#122,#98,.T.);
#153=EDGE_CURVE('',#122,#123,#99,.T.);
#154=EDGE_CURVE('',#123,#124,#100,.T.);
#155=EDGE_CURVE('',#124,#123,#101,.T.);
#156=EDGE_CURVE('',#125,#126,#102,.T.);
#157=EDGE_CURVE('',#126,#125,#103,.T.);
#158=EDGE_CURVE('',#126,#124,#71,.T.);
#159=EDGE_CURVE('',#125,#118,#104,.T.);
#160=ORIENTED_EDGE('',*,*,#127,.T.);
#161=ORIENTED_EDGE('',*,*,#128,.T.);
#162=ORIENTED_EDGE('',*,*,#129,.T.);
#163=ORIENTED_EDGE('',*,*,#130,.T.);
#164=ORIENTED_EDGE('',*,*,#128,.F.);
#165=ORIENTED_EDGE('',*,*,#131,.F.);
#166=ORIENTED_EDGE('',*,*,#132,.F.);
#167=ORIENTED_EDGE('',*,*,#133,.T.);
#168=ORIENTED_EDGE('',*,*,#129,.F.);
#169=ORIENTED_EDGE('',*,*,#130,.F.);
#170=ORIENTED_EDGE('',*,*,#133,.F.);
#171=ORIENTED_EDGE('',*,*,#134,.F.);
#172=ORIENTED_EDGE('',*,*,#127,.F.);
#173=ORIENTED_EDGE('',*,*,#131,.T.);
#174=ORIENTED_EDGE('',*,*,#132,.T.);
#175=ORIENTED_EDGE('',*,*,#135,.T.);
#176=ORIENTED_EDGE('',*,*,#136,.T.);
#177=ORIENTED_EDGE('',*,*,#135,.F.);
#178=ORIENTED_EDGE('',*,*,#137,.F.);
#179=ORIENTED_EDGE('',*,*,#136,.F.);
#180=ORIENTED_EDGE('',*,*,#138,.T.);
#181=ORIENTED_EDGE('',*,*,#139,.T.);
#182=ORIENTED_EDGE('',*,*,#140,.T.);
#183=ORIENTED_EDGE('',*,*,#141,.T.);
#184=ORIENTED_EDGE('',*,*,#140,.F.);
#185=ORIENTED_EDGE('',*,*,#142,.F.);
#186=ORIENTED_EDGE('',*,*,#143,.F.);
#187=ORIENTED_EDGE('',*,*,#144,.T.);
#188=ORIENTED_EDGE('',*,*,#138,.F.);
#189=ORIENTED_EDGE('',*,*,#139,.F.);
#190=ORIENTED_EDGE('',*,*,#144,.F.);
#191=ORIENTED_EDGE('',*,*,#141,.F.);
#192=ORIENTED_EDGE('',*,*,#145,.F.);
#193=ORIENTED_EDGE('',*,*,#137,.T.);
#194=ORIENTED_EDGE('',*,*,#146,.T.);
#195=ORIENTED_EDGE('',*,*,#142,.T.);
#196=ORIENTED_EDGE('',*,*,#143,.T.);
#197=ORIENTED_EDGE('',*,*,#146,.F.);
#198=ORIENTED_EDGE('',*,*,#147,.T.);
#199=ORIENTED_EDGE('',*,*,#148,.T.);
#200=ORIENTED_EDGE('',*,*,#149,.T.);
#201=ORIENTED_EDGE('',*,*,#134,.T.);
#202=ORIENTED_EDGE('',*,*,#149,.F.);
#203=ORIENTED_EDGE('',*,*,#150,.F.);
#204=ORIENTED_EDGE('',*,*,#151,.T.);
#205=ORIENTED_EDGE('',*,*,#147,.F.);
#206=ORIENTED_EDGE('',*,*,#148,.F.);
#207=ORIENTED_EDGE('',*,*,#151,.F.);
#208=ORIENTED_EDGE('',*,*,#152,.T.);
#209=ORIENTED_EDGE('',*,*,#153,.T.);
#210=ORIENTED_EDGE('',*,*,#154,.T.);
#211=ORIENTED_EDGE('',*,*,#155,.T.);
#212=ORIENTED_EDGE('',*,*,#153,.F.);
#213=ORIENTED_EDGE('',*,*,#156,.F.);
#214=ORIENTED_EDGE('',*,*,#157,.F.);
#215=ORIENTED_EDGE('',*,*,#158,.T.);
#216=ORIENTED_EDGE('',*,*,#154,.F.);
#217=ORIENTED_EDGE('',*,*,#155,.F.);
#218=ORIENTED_EDGE('',*,*,#158,.F.);
#219=ORIENTED_EDGE('',*,*,#150,.T.);
#220=ORIENTED_EDGE('',*,*,#152,.F.);
#221=ORIENTED_EDGE('',*,*,#156,.T.);
#222=ORIENTED_EDGE('',*,*,#157,.T.);
#223=ORIENTED_EDGE('',*,*,#159,.T.);
#224=ORIENTED_EDGE('',*,*,#145,.T.);
#225=ORIENTED_EDGE('',*,*,#159,.F.);
#226=CONICAL_SURFACE('',#269,20.5,0.785398163397452);
#227=CONICAL_SURFACE('',#278,20.5,0.785398163397449);
#228=CONICAL_SURFACE('',#282,29.5,0.785398163397452);
#229=CONICAL_SURFACE('',#291,29.5,0.785398163397454);
#230=CONICAL_SURFACE('',#292,25.5,0.78539816339745);
#231=ADVANCED_FACE('',(#29),#226,.F.);
#232=ADVANCED_FACE('',(#30),#25,.F.);
#233=ADVANCED_FACE('',(#31,#17),#21,.T.);
#234=ADVANCED_FACE('',(#32),#227,.F.);
#235=ADVANCED_FACE('',(#33,#18),#22,.T.);
#236=ADVANCED_FACE('',(#34),#228,.T.);
#237=ADVANCED_FACE('',(#35),#26,.T.);
#238=ADVANCED_FACE('',(#36,#19),#23,.T.);
#239=ADVANCED_FACE('',(#37),#229,.T.);
#240=ADVANCED_FACE('',(#38),#230,.T.);
#241=ADVANCED_FACE('',(#39),#27,.T.);
#242=ADVANCED_FACE('',(#40),#15,.F.);
#243=ADVANCED_FACE('',(#41),#28,.T.);
#244=ADVANCED_FACE('',(#42,#20),#24,.T.);
#245=ADVANCED_FACE('',(#43),#16,.F.);
#246=CLOSED_SHELL('',(#231,#232,#233,#234,#235,#236,#237,#238,#239,#240,
#241,#242,#243,#244,#245));
#247=DERIVED_UNIT_ELEMENT(#250,1.);
#248=DERIVED_UNIT_ELEMENT(#473,-3.);
#249=DIMENSIONAL_EXPONENTS(1.,0.,0.,0.,0.,0.,0.);
#250=(
CONVERSION_BASED_UNIT('gram',#252)
MASS_UNIT()
NAMED_UNIT(#249)
);
#251=(
MASS_UNIT()
NAMED_UNIT(*)
SI_UNIT(.KILO.,.GRAM.)
);
#252=MASS_MEASURE_WITH_UNIT(MASS_MEASURE(0.001),#251);
#253=DERIVED_UNIT((#247,#248));
#254=MEASURE_REPRESENTATION_ITEM('density measure',
POSITIVE_RATIO_MEASURE(7.85),#253);
#255=PROPERTY_DEFINITION_REPRESENTATION(#260,#257);
#256=PROPERTY_DEFINITION_REPRESENTATION(#261,#258);
#257=REPRESENTATION('material name',(#259),#470);
#258=REPRESENTATION('density',(#254),#470);
#259=DESCRIPTIVE_REPRESENTATION_ITEM('Acier A37','Acier A37');
#260=PROPERTY_DEFINITION('material property','material name',#480);
#261=PROPERTY_DEFINITION('material property','density of part',#480);
#262=DATE_TIME_ROLE('creation_date');
#263=APPLIED_DATE_AND_TIME_ASSIGNMENT(#264,#262,(#480));
#264=DATE_AND_TIME(#265,#266);
#265=CALENDAR_DATE(2023,18,12);
#266=LOCAL_TIME(0,0,0.,#267);
#267=COORDINATED_UNIVERSAL_TIME_OFFSET(0,0,.BEHIND.);
#268=AXIS2_PLACEMENT_3D('placement',#397,#308,#309);
#269=AXIS2_PLACEMENT_3D('',#398,#310,#311);
#270=AXIS2_PLACEMENT_3D('',#400,#312,#313);
#271=AXIS2_PLACEMENT_3D('',#404,#315,#316);
#272=AXIS2_PLACEMENT_3D('',#405,#317,#318);
#273=AXIS2_PLACEMENT_3D('',#406,#319,#320);
#274=AXIS2_PLACEMENT_3D('',#409,#321,#322);
#275=AXIS2_PLACEMENT_3D('',#410,#323,#324);
#276=AXIS2_PLACEMENT_3D('',#412,#326,#327);
#277=AXIS2_PLACEMENT_3D('',#414,#328,#329);
#278=AXIS2_PLACEMENT_3D('',#415,#330,#331);
#279=AXIS2_PLACEMENT_3D('',#418,#333,#334);
#280=AXIS2_PLACEMENT_3D('',#419,#335,#336);
#281=AXIS2_PLACEMENT_3D('',#421,#337,#338);
#282=AXIS2_PLACEMENT_3D('',#422,#339,#340);
#283=AXIS2_PLACEMENT_3D('',#425,#341,#342);
#284=AXIS2_PLACEMENT_3D('',#426,#343,#344);
#285=AXIS2_PLACEMENT_3D('',#429,#346,#347);
#286=AXIS2_PLACEMENT_3D('',#430,#348,#349);
#287=AXIS2_PLACEMENT_3D('',#433,#350,#351);
#288=AXIS2_PLACEMENT_3D('',#434,#352,#353);
#289=AXIS2_PLACEMENT_3D('',#436,#355,#356);
#290=AXIS2_PLACEMENT_3D('',#438,#357,#358);
#291=AXIS2_PLACEMENT_3D('',#439,#359,#360);
#292=AXIS2_PLACEMENT_3D('',#441,#362,#363);
#293=AXIS2_PLACEMENT_3D('',#444,#364,#365);
#294=AXIS2_PLACEMENT_3D('',#445,#366,#367);
#295=AXIS2_PLACEMENT_3D('',#447,#369,#370);
#296=AXIS2_PLACEMENT_3D('',#449,#371,#372);
#297=AXIS2_PLACEMENT_3D('',#451,#374,#375);
#298=AXIS2_PLACEMENT_3D('',#453,#376,#377);
#299=AXIS2_PLACEMENT_3D('',#455,#378,#379);
#300=AXIS2_PLACEMENT_3D('',#457,#380,#381);
#301=AXIS2_PLACEMENT_3D('',#458,#382,#383);
#302=AXIS2_PLACEMENT_3D('',#459,#384,#385);
#303=AXIS2_PLACEMENT_3D('',#462,#386,#387);
#304=AXIS2_PLACEMENT_3D('',#463,#388,#389);
#305=AXIS2_PLACEMENT_3D('',#465,#391,#392);
#306=AXIS2_PLACEMENT_3D('',#466,#393,#394);
#307=AXIS2_PLACEMENT_3D('',#467,#395,#396);
#308=DIRECTION('axis',(0.,0.,1.));
#309=DIRECTION('refdir',(1.,0.,0.));
#310=DIRECTION('center_axis',(3.02788097625043E-16,-1.,0.));
#311=DIRECTION('ref_axis',(1.,2.63401028015281E-16,0.));
#312=DIRECTION('center_axis',(3.02788097625043E-16,-1.,0.));
#313=DIRECTION('ref_axis',(1.,3.02788097625043E-16,0.));
#314=DIRECTION('',(0.70710678118655,0.707106781186545,8.65956056235497E-17));
#315=DIRECTION('center_axis',(-3.02788097625043E-16,1.,0.));
#316=DIRECTION('ref_axis',(1.,2.22044604925031E-16,0.));
#317=DIRECTION('center_axis',(-3.02788097625043E-16,1.,0.));
#318=DIRECTION('ref_axis',(1.,2.22044604925031E-16,0.));
#319=DIRECTION('center_axis',(-3.02788097625043E-16,1.,0.));
#320=DIRECTION('ref_axis',(-1.,-2.22044604925031E-16,0.));
#321=DIRECTION('center_axis',(3.02788097625043E-16,-1.,0.));
#322=DIRECTION('ref_axis',(1.,2.22044604925031E-16,0.));
#323=DIRECTION('center_axis',(3.02788097625043E-16,-1.,0.));
#324=DIRECTION('ref_axis',(1.,2.22044604925031E-16,0.));
#325=DIRECTION('',(3.02788097625043E-16,-1.,0.));
#326=DIRECTION('center_axis',(3.02788097625043E-16,-1.,0.));
#327=DIRECTION('ref_axis',(0.,0.,-1.));
#328=DIRECTION('center_axis',(-3.02788097625043E-16,1.,0.));
#329=DIRECTION('ref_axis',(1.,3.02788097625043E-16,0.));
#330=DIRECTION('center_axis',(-3.02788097625043E-16,1.,0.));
#331=DIRECTION('ref_axis',(1.,2.63401028015281E-16,0.));
#332=DIRECTION('',(-0.707106781186548,0.707106781186547,-8.65956056235493E-17));
#333=DIRECTION('center_axis',(-3.02788097625043E-16,1.,0.));
#334=DIRECTION('ref_axis',(1.,3.02788097625043E-16,0.));
#335=DIRECTION('center_axis',(-3.02788097625043E-16,1.,0.));
#336=DIRECTION('ref_axis',(0.,0.,1.));
#337=DIRECTION('center_axis',(3.02788097625043E-16,-1.,0.));
#338=DIRECTION('ref_axis',(1.,3.02788097625043E-16,0.));
#339=DIRECTION('center_axis',(-3.02788097625043E-16,1.,0.));
#340=DIRECTION('ref_axis',(1.,2.61732084387749E-16,0.));
#341=DIRECTION('center_axis',(3.02788097625043E-16,-1.,0.));
#342=DIRECTION('ref_axis',(1.,2.22044604925031E-16,0.));
#343=DIRECTION('center_axis',(3.02788097625043E-16,-1.,0.));
#344=DIRECTION('ref_axis',(1.,2.22044604925031E-16,0.));
#345=DIRECTION('',(0.707106781186551,-0.707106781186544,-8.65956056235497E-17));
#346=DIRECTION('center_axis',(-3.02788097625043E-16,1.,0.));
#347=DIRECTION('ref_axis',(1.,3.02788097625043E-16,0.));
#348=DIRECTION('center_axis',(-3.02788097625043E-16,1.,0.));
#349=DIRECTION('ref_axis',(-1.,-2.22044604925031E-16,0.));
#350=DIRECTION('center_axis',(-3.02788097625043E-16,1.,0.));
#351=DIRECTION('ref_axis',(1.,2.22044604925031E-16,0.));
#352=DIRECTION('center_axis',(-3.02788097625043E-16,1.,0.));
#353=DIRECTION('ref_axis',(1.,2.22044604925031E-16,0.));
#354=DIRECTION('',(3.02788097625043E-16,-1.,0.));
#355=DIRECTION('center_axis',(3.02788097625043E-16,-1.,0.));
#356=DIRECTION('ref_axis',(0.,0.,-1.));
#357=DIRECTION('center_axis',(3.02788097625043E-16,-1.,0.));
#358=DIRECTION('ref_axis',(1.,3.02788097625043E-16,0.));
#359=DIRECTION('center_axis',(3.02788097625043E-16,-1.,0.));
#360=DIRECTION('ref_axis',(1.,2.61732084387749E-16,0.));
#361=DIRECTION('',(-0.70710678118655,-0.707106781186545,8.65956056235497E-17));
#362=DIRECTION('center_axis',(-3.02788097625043E-16,1.,0.));
#363=DIRECTION('ref_axis',(1.,2.61624748405429E-16,0.));
#364=DIRECTION('center_axis',(3.02788097625043E-16,-1.,0.));
#365=DIRECTION('ref_axis',(1.,2.22044604925031E-16,0.));
#366=DIRECTION('center_axis',(3.02788097625043E-16,-1.,0.));
#367=DIRECTION('ref_axis',(1.,2.22044604925031E-16,0.));
#368=DIRECTION('',(0.707106781186549,-0.707106781186546,-8.65956056235495E-17));
#369=DIRECTION('center_axis',(-3.02788097625043E-16,1.,0.));
#370=DIRECTION('ref_axis',(-1.,-2.22044604925031E-16,0.));
#371=DIRECTION('center_axis',(-3.02788097625043E-16,1.,0.));
#372=DIRECTION('ref_axis',(1.,3.02788097625043E-16,0.));
#373=DIRECTION('',(3.02788097625043E-16,-1.,0.));
#374=DIRECTION('center_axis',(-3.02788097625043E-16,1.,0.));
#375=DIRECTION('ref_axis',(0.,0.,1.));
#376=DIRECTION('center_axis',(-3.02788097625043E-16,1.,0.));
#377=DIRECTION('ref_axis',(1.,3.02788097625043E-16,0.));
#378=DIRECTION('center_axis',(-1.,-3.02788097625043E-16,1.22464679914735E-16));
#379=DIRECTION('ref_axis',(-1.22464679914735E-16,0.,-1.));
#380=DIRECTION('center_axis',(3.02788097625043E-16,-1.,0.));
#381=DIRECTION('ref_axis',(1.,3.00685402502647E-16,0.));
#382=DIRECTION('center_axis',(3.02788097625043E-16,-1.,0.));
#383=DIRECTION('ref_axis',(1.,3.00685402502647E-16,0.));
#384=DIRECTION('center_axis',(-3.02788097625043E-16,1.,0.));
#385=DIRECTION('ref_axis',(-1.,-2.22044604925031E-16,0.));
#386=DIRECTION('center_axis',(-3.02788097625043E-16,1.,0.));
#387=DIRECTION('ref_axis',(1.,3.00685402502647E-16,0.));
#388=DIRECTION('center_axis',(-3.02788097625043E-16,1.,0.));
#389=DIRECTION('ref_axis',(1.,3.00685402502647E-16,0.));
#390=DIRECTION('',(3.02788097625043E-16,-1.,0.));
#391=DIRECTION('center_axis',(-3.02788097625043E-16,1.,0.));
#392=DIRECTION('ref_axis',(0.,0.,1.));
#393=DIRECTION('center_axis',(-3.02788097625043E-16,1.,0.));
#394=DIRECTION('ref_axis',(0.,0.,1.));
#395=DIRECTION('center_axis',(-1.,-3.02788097625043E-16,1.22464679914735E-16));
#396=DIRECTION('ref_axis',(-1.22464679914735E-16,0.,-1.));
#397=CARTESIAN_POINT('',(0.,0.,0.));
#398=CARTESIAN_POINT('Origin',(-1.51394048812523E-16,0.500000000000003,
0.));
#399=CARTESIAN_POINT('',(-21.,-1.64010219546898E-15,-2.57175827820944E-15));
#400=CARTESIAN_POINT('Origin',(-1.84889274661175E-30,4.71844785465692E-15,
0.));
#401=CARTESIAN_POINT('',(-20.,0.999999999999996,2.44929359829471E-15));
#402=CARTESIAN_POINT('',(-20.5,0.499999999999997,-2.51052593825208E-15));
#403=CARTESIAN_POINT('',(20.,1.00000000000001,-2.44929359829471E-15));
#404=CARTESIAN_POINT('Origin',(-3.02788097625043E-16,1.,0.));
#405=CARTESIAN_POINT('Origin',(-3.02788097625043E-16,1.,0.));
#406=CARTESIAN_POINT('Origin',(-8.32667268468868E-15,27.5,0.));
#407=CARTESIAN_POINT('',(-20.,54.,-2.44929359829471E-15));
#408=CARTESIAN_POINT('',(20.,54.,-2.44929359829471E-15));
#409=CARTESIAN_POINT('Origin',(-1.63505572717523E-14,54.,0.));
#410=CARTESIAN_POINT('Origin',(-1.63505572717523E-14,54.,0.));
#411=CARTESIAN_POINT('',(20.,27.5,-2.44929359829471E-15));
#412=CARTESIAN_POINT('Origin',(-26.,-3.18408167778312E-15,0.));
#413=CARTESIAN_POINT('',(-25.,-2.85125458596915E-15,3.06161699786838E-15));
#414=CARTESIAN_POINT('Origin',(-1.4791141972894E-30,4.71844785465692E-15,
0.));
#415=CARTESIAN_POINT('Origin',(-1.65019513205648E-14,54.5,0.));
#416=CARTESIAN_POINT('',(-21.,55.,2.57175827820944E-15));
#417=CARTESIAN_POINT('',(-20.5,54.5,-2.51052593825207E-15));
#418=CARTESIAN_POINT('Origin',(-1.66533453693774E-14,55.,0.));
#419=CARTESIAN_POINT('Origin',(-20.,55.,0.));
#420=CARTESIAN_POINT('',(-29.,55.,-3.55147571752733E-15));
#421=CARTESIAN_POINT('Origin',(-1.66533453693773E-14,55.,0.));
#422=CARTESIAN_POINT('Origin',(-1.22629179538142E-14,40.5,0.));
#423=CARTESIAN_POINT('',(-30.,41.,-3.67394039744206E-15));
#424=CARTESIAN_POINT('',(30.,41.,-3.67394039744206E-15));
#425=CARTESIAN_POINT('Origin',(-1.24143120026267E-14,41.,0.));
#426=CARTESIAN_POINT('Origin',(-1.24143120026267E-14,41.,0.));
#427=CARTESIAN_POINT('',(-29.,40.,3.55147571752733E-15));
#428=CARTESIAN_POINT('',(-29.5,40.5,3.61270805748469E-15));
#429=CARTESIAN_POINT('Origin',(-1.21115239050017E-14,40.,0.));
#430=CARTESIAN_POINT('Origin',(-1.43824346371895E-14,47.5,0.));
#431=CARTESIAN_POINT('',(-30.,54.,3.67394039744206E-15));
#432=CARTESIAN_POINT('',(30.,54.,-3.67394039744206E-15));
#433=CARTESIAN_POINT('Origin',(-1.63505572717523E-14,54.,0.));
#434=CARTESIAN_POINT('Origin',(-1.63505572717523E-14,54.,0.));
#435=CARTESIAN_POINT('',(30.,47.5,-3.67394039744206E-15));
#436=CARTESIAN_POINT('Origin',(-30.,40.,0.));
#437=CARTESIAN_POINT('',(-1.51731409028701E-14,40.,-25.));
#438=CARTESIAN_POINT('Origin',(-1.21115239050017E-14,40.,0.));
#439=CARTESIAN_POINT('Origin',(-1.65019513205648E-14,54.5,0.));
#440=CARTESIAN_POINT('',(-29.5,54.5,3.61270805748469E-15));
#441=CARTESIAN_POINT('Origin',(-1.51394048812523E-16,0.500000000000005,
0.));
#442=CARTESIAN_POINT('',(-26.,1.,-3.18408167778312E-15));
#443=CARTESIAN_POINT('',(26.,1.00000000000001,-3.18408167778312E-15));
#444=CARTESIAN_POINT('Origin',(-3.02788097625044E-16,1.00000000000001,0.));
#445=CARTESIAN_POINT('Origin',(-3.02788097625044E-16,1.00000000000001,0.));
#446=CARTESIAN_POINT('',(-25.5,0.499999999999998,3.12284933782575E-15));
#447=CARTESIAN_POINT('Origin',(-5.29879170843825E-15,17.5,0.));
#448=CARTESIAN_POINT('',(26.,35.,-3.18408167778312E-15));
#449=CARTESIAN_POINT('Origin',(-1.05975834168765E-14,35.,0.));
#450=CARTESIAN_POINT('',(26.,17.5,-3.18408167778312E-15));
#451=CARTESIAN_POINT('Origin',(-1.09003715145015E-14,36.,0.));
#452=CARTESIAN_POINT('',(-1.36592004147449E-14,35.,-25.));
#453=CARTESIAN_POINT('Origin',(-1.05975834168765E-14,35.,0.));
#454=CARTESIAN_POINT('',(-1.38395238324552E-14,36.,-24.));
#455=CARTESIAN_POINT('Origin',(-1.39619885123699E-14,36.,-25.));
#456=CARTESIAN_POINT('',(24.,36.,-2.93915231795365E-15));
#457=CARTESIAN_POINT('Origin',(-1.09003715145015E-14,36.,0.));
#458=CARTESIAN_POINT('Origin',(-1.09003715145015E-14,36.,0.));
#459=CARTESIAN_POINT('Origin',(-1.13545536609391E-14,37.5,0.));
#460=CARTESIAN_POINT('',(-1.47478881253303E-14,39.,-24.));
#461=CARTESIAN_POINT('',(24.,39.,-2.93915231795365E-15));
#462=CARTESIAN_POINT('Origin',(-1.18087358073767E-14,39.,0.));
#463=CARTESIAN_POINT('Origin',(-1.18087358073767E-14,39.,0.));
#464=CARTESIAN_POINT('',(24.,37.5,-2.93915231795365E-15));
#465=CARTESIAN_POINT('Origin',(-24.,35.,0.));
#466=CARTESIAN_POINT('Origin',(-1.18087358073767E-14,39.,0.));
#467=CARTESIAN_POINT('Origin',(-1.4870352805245E-14,39.,-25.));
#468=UNCERTAINTY_MEASURE_WITH_UNIT(LENGTH_MEASURE(0.01),#472,
'DISTANCE_ACCURACY_VALUE',
'Maximum model space distance between geometric entities at asserted c
onnectivities');
#469=UNCERTAINTY_MEASURE_WITH_UNIT(LENGTH_MEASURE(0.01),#472,
'DISTANCE_ACCURACY_VALUE',
'Maximum model space distance between geometric entities at asserted c
onnectivities');
#470=(
GEOMETRIC_REPRESENTATION_CONTEXT(3)
GLOBAL_UNCERTAINTY_ASSIGNED_CONTEXT((#468))
GLOBAL_UNIT_ASSIGNED_CONTEXT((#472,#474,#475))
REPRESENTATION_CONTEXT('','3D')
);
#471=(
GEOMETRIC_REPRESENTATION_CONTEXT(3)
GLOBAL_UNCERTAINTY_ASSIGNED_CONTEXT((#469))
GLOBAL_UNIT_ASSIGNED_CONTEXT((#472,#474,#475))
REPRESENTATION_CONTEXT('','3D')
);
#472=(
LENGTH_UNIT()
NAMED_UNIT(*)
SI_UNIT(.MILLI.,.METRE.)
);
#473=(
LENGTH_UNIT()
NAMED_UNIT(*)
SI_UNIT(.CENTI.,.METRE.)
);
#474=(
NAMED_UNIT(*)
PLANE_ANGLE_UNIT()
SI_UNIT($,.RADIAN.)
);
#475=(
NAMED_UNIT(*)
SI_UNIT($,.STERADIAN.)
SOLID_ANGLE_UNIT()
);
#476=SHAPE_DEFINITION_REPRESENTATION(#477,#478);
#477=PRODUCT_DEFINITION_SHAPE('',$,#480);
#478=SHAPE_REPRESENTATION('',(#268),#470);
#479=PRODUCT_DEFINITION_CONTEXT('part definition',#484,'design');
#480=PRODUCT_DEFINITION('F005','F005',#481,#479);
#481=PRODUCT_DEFINITION_FORMATION('',$,#486);
#482=PRODUCT_RELATED_PRODUCT_CATEGORY('F005','F005',(#486));
#483=APPLICATION_PROTOCOL_DEFINITION('international standard',
'automotive_design',2009,#484);
#484=APPLICATION_CONTEXT(
'Core Data for Automotive Mechanical Design Process');
#485=PRODUCT_CONTEXT('part definition',#484,'mechanical');
#486=PRODUCT('F005','F005','VIS DE BUTEE REGLABLE',(#485));
#487=PRESENTATION_STYLE_ASSIGNMENT((#488));
#488=SURFACE_STYLE_USAGE(.BOTH.,#491);
#489=SURFACE_STYLE_RENDERING_WITH_PROPERTIES($,#495,(#490));
#490=SURFACE_STYLE_TRANSPARENT(0.);
#491=SURFACE_SIDE_STYLE('',(#492,#489));
#492=SURFACE_STYLE_FILL_AREA(#493);
#493=FILL_AREA_STYLE('',(#494));
#494=FILL_AREA_STYLE_COLOUR('',#495);
#495=COLOUR_RGB('',0.87843137254902,0.874509803921569,0.858823529411765);
ENDSEC;
END-ISO-10303-21;
