ISO-10303-21;
HEADER;
/* Generated by software containing ST-Developer
 * from STEP Tools, Inc. (www.steptools.com) 
 */

FILE_DESCRIPTION(
/* description */ (''),
/* implementation_level */ '2;1');

FILE_NAME(
/* name */ 'Heat Shink v4.step',
/* time_stamp */ '2024-02-13T16:27:13+01:00',
/* author */ (''),
/* organization */ (''),
/* preprocessor_version */ 'ST-DEVELOPER v20',
/* originating_system */ 'Autodesk Translation Framework v12.20.1.177',

/* authorisation */ '');

FILE_SCHEMA (('AUTOMOTIVE_DESIGN { 1 0 10303 214 3 1 1 }'));
ENDSEC;

DATA;
#10=MECHANICAL_DESIGN_GEOMETRIC_PRESENTATION_REPRESENTATION('',(#13),#362);
#11=SHAPE_REPRESENTATION_RELATIONSHIP('SRR','None',#369,#12);
#12=ADVANCED_BREP_SHAPE_REPRESENTATION('',(#14),#361);
#13=STYLED_ITEM('',(#378),#14);
#14=MANIFOLD_SOLID_BREP('Corps1',#206);
#15=FACE_BOUND('',#44,.T.);
#16=FACE_BOUND('',#46,.T.);
#17=PLANE('',#226);
#18=PLANE('',#230);
#19=PLANE('',#234);
#20=PLANE('',#238);
#21=PLANE('',#239);
#22=PLANE('',#240);
#23=FACE_OUTER_BOUND('',#34,.T.);
#24=FACE_OUTER_BOUND('',#35,.T.);
#25=FACE_OUTER_BOUND('',#36,.T.);
#26=FACE_OUTER_BOUND('',#37,.T.);
#27=FACE_OUTER_BOUND('',#38,.T.);
#28=FACE_OUTER_BOUND('',#39,.T.);
#29=FACE_OUTER_BOUND('',#40,.T.);
#30=FACE_OUTER_BOUND('',#41,.T.);
#31=FACE_OUTER_BOUND('',#42,.T.);
#32=FACE_OUTER_BOUND('',#43,.T.);
#33=FACE_OUTER_BOUND('',#45,.T.);
#34=EDGE_LOOP('',(#136,#137,#138,#139));
#35=EDGE_LOOP('',(#140,#141,#142,#143));
#36=EDGE_LOOP('',(#144,#145,#146,#147));
#37=EDGE_LOOP('',(#148,#149,#150,#151));
#38=EDGE_LOOP('',(#152,#153,#154,#155));
#39=EDGE_LOOP('',(#156,#157,#158,#159));
#40=EDGE_LOOP('',(#160,#161,#162,#163));
#41=EDGE_LOOP('',(#164,#165,#166,#167));
#42=EDGE_LOOP('',(#168,#169,#170,#171));
#43=EDGE_LOOP('',(#172,#173,#174,#175,#176,#177,#178,#179));
#44=EDGE_LOOP('',(#180));
#45=EDGE_LOOP('',(#181,#182,#183,#184,#185,#186,#187,#188));
#46=EDGE_LOOP('',(#189));
#47=LINE('',#307,#64);
#48=LINE('',#314,#65);
#49=LINE('',#317,#66);
#50=LINE('',#320,#67);
#51=LINE('',#322,#68);
#52=LINE('',#323,#69);
#53=LINE('',#329,#70);
#54=LINE('',#332,#71);
#55=LINE('',#334,#72);
#56=LINE('',#335,#73);
#57=LINE('',#341,#74);
#58=LINE('',#344,#75);
#59=LINE('',#346,#76);
#60=LINE('',#347,#77);
#61=LINE('',#353,#78);
#62=LINE('',#355,#79);
#63=LINE('',#356,#80);
#64=VECTOR('',#247,2.);
#65=VECTOR('',#254,10.);
#66=VECTOR('',#257,10.);
#67=VECTOR('',#260,10.);
#68=VECTOR('',#261,10.);
#69=VECTOR('',#262,10.);
#70=VECTOR('',#269,10.);
#71=VECTOR('',#272,10.);
#72=VECTOR('',#273,10.);
#73=VECTOR('',#274,10.);
#74=VECTOR('',#281,10.);
#75=VECTOR('',#284,10.);
#76=VECTOR('',#285,10.);
#77=VECTOR('',#286,10.);
#78=VECTOR('',#293,10.);
#79=VECTOR('',#296,10.);
#80=VECTOR('',#297,10.);
#81=CIRCLE('',#221,2.);
#82=CIRCLE('',#222,2.);
#83=CIRCLE('',#224,1.9999999999999);
#84=CIRCLE('',#225,1.9999999999999);
#85=CIRCLE('',#228,2.00000000000005);
#86=CIRCLE('',#229,2.00000000000005);
#87=CIRCLE('',#232,2.);
#88=CIRCLE('',#233,2.);
#89=CIRCLE('',#236,1.99999999999999);
#90=CIRCLE('',#237,1.99999999999999);
#91=VERTEX_POINT('',#304);
#92=VERTEX_POINT('',#306);
#93=VERTEX_POINT('',#310);
#94=VERTEX_POINT('',#311);
#95=VERTEX_POINT('',#313);
#96=VERTEX_POINT('',#315);
#97=VERTEX_POINT('',#319);
#98=VERTEX_POINT('',#321);
#99=VERTEX_POINT('',#325);
#100=VERTEX_POINT('',#327);
#101=VERTEX_POINT('',#331);
#102=VERTEX_POINT('',#333);
#103=VERTEX_POINT('',#337);
#104=VERTEX_POINT('',#339);
#105=VERTEX_POINT('',#343);
#106=VERTEX_POINT('',#345);
#107=VERTEX_POINT('',#349);
#108=VERTEX_POINT('',#351);
#109=EDGE_CURVE('',#91,#91,#81,.T.);
#110=EDGE_CURVE('',#91,#92,#47,.T.);
#111=EDGE_CURVE('',#92,#92,#82,.T.);
#112=EDGE_CURVE('',#93,#94,#83,.T.);
#113=EDGE_CURVE('',#93,#95,#48,.T.);
#114=EDGE_CURVE('',#96,#95,#84,.T.);
#115=EDGE_CURVE('',#94,#96,#49,.T.);
#116=EDGE_CURVE('',#94,#97,#50,.T.);
#117=EDGE_CURVE('',#98,#96,#51,.T.);
#118=EDGE_CURVE('',#97,#98,#52,.T.);
#119=EDGE_CURVE('',#97,#99,#85,.T.);
#120=EDGE_CURVE('',#100,#98,#86,.T.);
#121=EDGE_CURVE('',#99,#100,#53,.T.);
#122=EDGE_CURVE('',#99,#101,#54,.T.);
#123=EDGE_CURVE('',#102,#100,#55,.T.);
#124=EDGE_CURVE('',#101,#102,#56,.T.);
#125=EDGE_CURVE('',#101,#103,#87,.T.);
#126=EDGE_CURVE('',#104,#102,#88,.T.);
#127=EDGE_CURVE('',#103,#104,#57,.T.);
#128=EDGE_CURVE('',#103,#105,#58,.T.);
#129=EDGE_CURVE('',#106,#104,#59,.T.);
#130=EDGE_CURVE('',#105,#106,#60,.T.);
#131=EDGE_CURVE('',#105,#107,#89,.T.);
#132=EDGE_CURVE('',#108,#106,#90,.T.);
#133=EDGE_CURVE('',#107,#108,#61,.T.);
#134=EDGE_CURVE('',#107,#93,#62,.T.);
#135=EDGE_CURVE('',#95,#108,#63,.T.);
#136=ORIENTED_EDGE('',*,*,#109,.F.);
#137=ORIENTED_EDGE('',*,*,#110,.T.);
#138=ORIENTED_EDGE('',*,*,#111,.F.);
#139=ORIENTED_EDGE('',*,*,#110,.F.);
#140=ORIENTED_EDGE('',*,*,#112,.F.);
#141=ORIENTED_EDGE('',*,*,#113,.T.);
#142=ORIENTED_EDGE('',*,*,#114,.F.);
#143=ORIENTED_EDGE('',*,*,#115,.F.);
#144=ORIENTED_EDGE('',*,*,#116,.F.);
#145=ORIENTED_EDGE('',*,*,#115,.T.);
#146=ORIENTED_EDGE('',*,*,#117,.F.);
#147=ORIENTED_EDGE('',*,*,#118,.F.);
#148=ORIENTED_EDGE('',*,*,#119,.F.);
#149=ORIENTED_EDGE('',*,*,#118,.T.);
#150=ORIENTED_EDGE('',*,*,#120,.F.);
#151=ORIENTED_EDGE('',*,*,#121,.F.);
#152=ORIENTED_EDGE('',*,*,#122,.F.);
#153=ORIENTED_EDGE('',*,*,#121,.T.);
#154=ORIENTED_EDGE('',*,*,#123,.F.);
#155=ORIENTED_EDGE('',*,*,#124,.F.);
#156=ORIENTED_EDGE('',*,*,#125,.F.);
#157=ORIENTED_EDGE('',*,*,#124,.T.);
#158=ORIENTED_EDGE('',*,*,#126,.F.);
#159=ORIENTED_EDGE('',*,*,#127,.F.);
#160=ORIENTED_EDGE('',*,*,#128,.F.);
#161=ORIENTED_EDGE('',*,*,#127,.T.);
#162=ORIENTED_EDGE('',*,*,#129,.F.);
#163=ORIENTED_EDGE('',*,*,#130,.F.);
#164=ORIENTED_EDGE('',*,*,#131,.F.);
#165=ORIENTED_EDGE('',*,*,#130,.T.);
#166=ORIENTED_EDGE('',*,*,#132,.F.);
#167=ORIENTED_EDGE('',*,*,#133,.F.);
#168=ORIENTED_EDGE('',*,*,#134,.F.);
#169=ORIENTED_EDGE('',*,*,#133,.T.);
#170=ORIENTED_EDGE('',*,*,#135,.F.);
#171=ORIENTED_EDGE('',*,*,#113,.F.);
#172=ORIENTED_EDGE('',*,*,#135,.T.);
#173=ORIENTED_EDGE('',*,*,#132,.T.);
#174=ORIENTED_EDGE('',*,*,#129,.T.);
#175=ORIENTED_EDGE('',*,*,#126,.T.);
#176=ORIENTED_EDGE('',*,*,#123,.T.);
#177=ORIENTED_EDGE('',*,*,#120,.T.);
#178=ORIENTED_EDGE('',*,*,#117,.T.);
#179=ORIENTED_EDGE('',*,*,#114,.T.);
#180=ORIENTED_EDGE('',*,*,#111,.T.);
#181=ORIENTED_EDGE('',*,*,#134,.T.);
#182=ORIENTED_EDGE('',*,*,#112,.T.);
#183=ORIENTED_EDGE('',*,*,#116,.T.);
#184=ORIENTED_EDGE('',*,*,#119,.T.);
#185=ORIENTED_EDGE('',*,*,#122,.T.);
#186=ORIENTED_EDGE('',*,*,#125,.T.);
#187=ORIENTED_EDGE('',*,*,#128,.T.);
#188=ORIENTED_EDGE('',*,*,#131,.T.);
#189=ORIENTED_EDGE('',*,*,#109,.T.);
#190=CYLINDRICAL_SURFACE('',#220,2.);
#191=CYLINDRICAL_SURFACE('',#223,1.9999999999999);
#192=CYLINDRICAL_SURFACE('',#227,2.00000000000005);
#193=CYLINDRICAL_SURFACE('',#231,2.);
#194=CYLINDRICAL_SURFACE('',#235,1.99999999999999);
#195=ADVANCED_FACE('',(#23),#190,.F.);
#196=ADVANCED_FACE('',(#24),#191,.T.);
#197=ADVANCED_FACE('',(#25),#17,.T.);
#198=ADVANCED_FACE('',(#26),#192,.T.);
#199=ADVANCED_FACE('',(#27),#18,.T.);
#200=ADVANCED_FACE('',(#28),#193,.T.);
#201=ADVANCED_FACE('',(#29),#19,.T.);
#202=ADVANCED_FACE('',(#30),#194,.T.);
#203=ADVANCED_FACE('',(#31),#20,.T.);
#204=ADVANCED_FACE('',(#32,#15),#21,.T.);
#205=ADVANCED_FACE('',(#33,#16),#22,.F.);
#206=CLOSED_SHELL('',(#195,#196,#197,#198,#199,#200,#201,#202,#203,#204,
#205));
#207=DERIVED_UNIT_ELEMENT(#209,1.);
#208=DERIVED_UNIT_ELEMENT(#364,-3.);
#209=(
MASS_UNIT()
NAMED_UNIT(*)
SI_UNIT(.KILO.,.GRAM.)
);
#210=DERIVED_UNIT((#207,#208));
#211=MEASURE_REPRESENTATION_ITEM('density measure',
POSITIVE_RATIO_MEASURE(2700.),#210);
#212=PROPERTY_DEFINITION_REPRESENTATION(#217,#214);
#213=PROPERTY_DEFINITION_REPRESENTATION(#218,#215);
#214=REPRESENTATION('material name',(#216),#361);
#215=REPRESENTATION('density',(#211),#361);
#216=DESCRIPTIVE_REPRESENTATION_ITEM('Aluminium','Aluminium');
#217=PROPERTY_DEFINITION('material property','material name',#371);
#218=PROPERTY_DEFINITION('material property','density of part',#371);
#219=AXIS2_PLACEMENT_3D('',#302,#241,#242);
#220=AXIS2_PLACEMENT_3D('',#303,#243,#244);
#221=AXIS2_PLACEMENT_3D('',#305,#245,#246);
#222=AXIS2_PLACEMENT_3D('',#308,#248,#249);
#223=AXIS2_PLACEMENT_3D('',#309,#250,#251);
#224=AXIS2_PLACEMENT_3D('',#312,#252,#253);
#225=AXIS2_PLACEMENT_3D('',#316,#255,#256);
#226=AXIS2_PLACEMENT_3D('',#318,#258,#259);
#227=AXIS2_PLACEMENT_3D('',#324,#263,#264);
#228=AXIS2_PLACEMENT_3D('',#326,#265,#266);
#229=AXIS2_PLACEMENT_3D('',#328,#267,#268);
#230=AXIS2_PLACEMENT_3D('',#330,#270,#271);
#231=AXIS2_PLACEMENT_3D('',#336,#275,#276);
#232=AXIS2_PLACEMENT_3D('',#338,#277,#278);
#233=AXIS2_PLACEMENT_3D('',#340,#279,#280);
#234=AXIS2_PLACEMENT_3D('',#342,#282,#283);
#235=AXIS2_PLACEMENT_3D('',#348,#287,#288);
#236=AXIS2_PLACEMENT_3D('',#350,#289,#290);
#237=AXIS2_PLACEMENT_3D('',#352,#291,#292);
#238=AXIS2_PLACEMENT_3D('',#354,#294,#295);
#239=AXIS2_PLACEMENT_3D('',#357,#298,#299);
#240=AXIS2_PLACEMENT_3D('',#358,#300,#301);
#241=DIRECTION('axis',(0.,0.,1.));
#242=DIRECTION('refdir',(1.,0.,0.));
#243=DIRECTION('center_axis',(0.,1.,0.));
#244=DIRECTION('ref_axis',(0.,0.,-1.));
#245=DIRECTION('center_axis',(0.,1.,0.));
#246=DIRECTION('ref_axis',(0.,0.,-1.));
#247=DIRECTION('',(0.,1.,0.));
#248=DIRECTION('center_axis',(0.,-1.,0.));
#249=DIRECTION('ref_axis',(0.,0.,-1.));
#250=DIRECTION('center_axis',(0.,1.,0.));
#251=DIRECTION('ref_axis',(-0.758631048669522,0.,-0.651520477033977));
#252=DIRECTION('center_axis',(0.,-1.,0.));
#253=DIRECTION('ref_axis',(-0.758631048669522,0.,-0.651520477033977));
#254=DIRECTION('',(0.,1.,0.));
#255=DIRECTION('center_axis',(0.,1.,0.));
#256=DIRECTION('ref_axis',(-0.758631048669522,0.,-0.651520477033977));
#257=DIRECTION('',(0.,1.,0.));
#258=DIRECTION('center_axis',(-2.44050585400702E-15,0.,-1.));
#259=DIRECTION('ref_axis',(-1.,0.,2.44050585400702E-15));
#260=DIRECTION('',(1.,0.,-2.44050585400702E-15));
#261=DIRECTION('',(-1.,0.,2.44050585400702E-15));
#262=DIRECTION('',(0.,1.,0.));
#263=DIRECTION('center_axis',(0.,1.,0.));
#264=DIRECTION('ref_axis',(-4.44089209850052E-15,0.,-1.));
#265=DIRECTION('center_axis',(0.,-1.,0.));
#266=DIRECTION('ref_axis',(-4.44089209850052E-15,0.,-1.));
#267=DIRECTION('center_axis',(0.,1.,0.));
#268=DIRECTION('ref_axis',(-4.44089209850052E-15,0.,-1.));
#269=DIRECTION('',(0.,1.,0.));
#270=DIRECTION('center_axis',(0.756776002399571,0.,-0.653674293660172));
#271=DIRECTION('ref_axis',(-0.653674293660172,0.,-0.756776002399571));
#272=DIRECTION('',(0.653674293660172,0.,0.756776002399571));
#273=DIRECTION('',(-0.653674293660172,0.,-0.756776002399571));
#274=DIRECTION('',(0.,1.,0.));
#275=DIRECTION('center_axis',(0.,1.,0.));
#276=DIRECTION('ref_axis',(0.756776002399561,0.,-0.653674293660184));
#277=DIRECTION('center_axis',(0.,-1.,0.));
#278=DIRECTION('ref_axis',(0.756776002399561,0.,-0.653674293660184));
#279=DIRECTION('center_axis',(0.,1.,0.));
#280=DIRECTION('ref_axis',(0.756776002399561,0.,-0.653674293660184));
#281=DIRECTION('',(0.,1.,0.));
#282=DIRECTION('center_axis',(0.,0.,1.));
#283=DIRECTION('ref_axis',(1.,0.,0.));
#284=DIRECTION('',(-1.,0.,0.));
#285=DIRECTION('',(1.,0.,0.));
#286=DIRECTION('',(0.,1.,0.));
#287=DIRECTION('center_axis',(0.,1.,0.));
#288=DIRECTION('ref_axis',(4.44089209850064E-15,0.,1.));
#289=DIRECTION('center_axis',(0.,-1.,0.));
#290=DIRECTION('ref_axis',(4.44089209850064E-15,0.,1.));
#291=DIRECTION('center_axis',(0.,1.,0.));
#292=DIRECTION('ref_axis',(4.44089209850064E-15,0.,1.));
#293=DIRECTION('',(0.,1.,0.));
#294=DIRECTION('center_axis',(-0.758631048669513,0.,-0.651520477033987));
#295=DIRECTION('ref_axis',(-0.651520477033987,0.,0.758631048669513));
#296=DIRECTION('',(0.651520477033987,0.,-0.758631048669513));
#297=DIRECTION('',(-0.651520477033987,0.,0.758631048669513));
#298=DIRECTION('center_axis',(0.,1.,0.));
#299=DIRECTION('ref_axis',(1.,0.,0.));
#300=DIRECTION('center_axis',(0.,1.,0.));
#301=DIRECTION('ref_axis',(1.,0.,0.));
#302=CARTESIAN_POINT('',(0.,0.,0.));
#303=CARTESIAN_POINT('Origin',(-20.74339441364,16.5,84.0084427292636));
#304=CARTESIAN_POINT('',(-20.74339441364,0.,86.0084427292636));
#305=CARTESIAN_POINT('Origin',(-20.74339441364,0.,84.0084427292636));
#306=CARTESIAN_POINT('',(-20.74339441364,30.,86.0084427292636));
#307=CARTESIAN_POINT('',(-20.74339441364,16.5,86.0084427292636));
#308=CARTESIAN_POINT('Origin',(-20.74339441364,30.,84.0084427292636));
#309=CARTESIAN_POINT('Origin',(-30.7493224611912,0.,83.0084427294656));
#310=CARTESIAN_POINT('',(-32.2665845585302,0.,81.7054017753977));
#311=CARTESIAN_POINT('',(-30.7493224611912,0.,81.0084427294657));
#312=CARTESIAN_POINT('Origin',(-30.7493224611912,0.,83.0084427294656));
#313=CARTESIAN_POINT('',(-32.2665845585302,30.,81.7054017753977));
#314=CARTESIAN_POINT('',(-32.2665845585302,0.,81.7054017753977));
#315=CARTESIAN_POINT('',(-30.7493224611912,30.,81.0084427294657));
#316=CARTESIAN_POINT('Origin',(-30.7493224611912,30.,83.0084427294656));
#317=CARTESIAN_POINT('',(-30.7493224611912,0.,81.0084427294657));
#318=CARTESIAN_POINT('Origin',(-10.7473687684449,0.,81.0084427294657));
#319=CARTESIAN_POINT('',(-10.7473687684449,0.,81.0084427294657));
#320=CARTESIAN_POINT('',(-31.6680286585639,0.,81.0084427294657));
#321=CARTESIAN_POINT('',(-10.7473687684449,30.,81.0084427294657));
#322=CARTESIAN_POINT('',(-31.6680286585639,30.,81.0084427294657));
#323=CARTESIAN_POINT('',(-10.7473687684449,0.,81.0084427294657));
#324=CARTESIAN_POINT('Origin',(-10.7473687684449,0.,83.0084427294657));
#325=CARTESIAN_POINT('',(-9.23381676364575,0.,81.7010941421453));
#326=CARTESIAN_POINT('Origin',(-10.7473687684449,0.,83.0084427294657));
#327=CARTESIAN_POINT('',(-9.23381676364575,30.,81.7010941421453));
#328=CARTESIAN_POINT('Origin',(-10.7473687684449,30.,83.0084427294657));
#329=CARTESIAN_POINT('',(-9.23381676364575,0.,81.7010941421453));
#330=CARTESIAN_POINT('Origin',(-7.50629292148503,0.,83.7010941421453));
#331=CARTESIAN_POINT('',(-7.50629292148503,0.,83.7010941421453));
#332=CARTESIAN_POINT('',(-9.83210267850095,0.,81.0084427294657));
#333=CARTESIAN_POINT('',(-7.50629292148503,30.,83.7010941421453));
#334=CARTESIAN_POINT('',(-9.83210267850095,30.,81.0084427294657));
#335=CARTESIAN_POINT('',(-7.50629292148503,0.,83.7010941421453));
#336=CARTESIAN_POINT('Origin',(-9.01984492628415,0.,85.0084427294657));
#337=CARTESIAN_POINT('',(-9.01984492628416,0.,87.0084427294657));
#338=CARTESIAN_POINT('Origin',(-9.01984492628415,0.,85.0084427294657));
#339=CARTESIAN_POINT('',(-9.01984492628416,30.,87.0084427294657));
#340=CARTESIAN_POINT('Origin',(-9.01984492628415,30.,85.0084427294657));
#341=CARTESIAN_POINT('',(-9.01984492628416,0.,87.0084427294657));
#342=CARTESIAN_POINT('Origin',(-32.4669439009586,0.,87.0084427294657));
#343=CARTESIAN_POINT('',(-32.4669439009586,0.,87.0084427294657));
#344=CARTESIAN_POINT('',(-9.01984492628416,0.,87.0084427294657));
#345=CARTESIAN_POINT('',(-32.4669439009586,30.,87.0084427294657));
#346=CARTESIAN_POINT('',(-9.01984492628416,30.,87.0084427294657));
#347=CARTESIAN_POINT('',(-32.4669439009586,0.,87.0084427294657));
#348=CARTESIAN_POINT('Origin',(-32.4669439009586,0.,85.0084427294657));
#349=CARTESIAN_POINT('',(-33.9842059982976,0.,83.7054017753977));
#350=CARTESIAN_POINT('Origin',(-32.4669439009586,0.,85.0084427294657));
#351=CARTESIAN_POINT('',(-33.9842059982976,30.,83.7054017753977));
#352=CARTESIAN_POINT('Origin',(-32.4669439009586,30.,85.0084427294657));
#353=CARTESIAN_POINT('',(-33.9842059982976,0.,83.7054017753977));
#354=CARTESIAN_POINT('Origin',(-32.2665845585302,0.,81.7054017753977));
#355=CARTESIAN_POINT('',(-33.9842059982976,0.,83.7054017753977));
#356=CARTESIAN_POINT('',(-33.9842059982976,30.,83.7054017753977));
#357=CARTESIAN_POINT('Origin',(-20.7433944136214,30.,84.0084427294657));
#358=CARTESIAN_POINT('Origin',(-20.7433944136214,0.,84.0084427294657));
#359=UNCERTAINTY_MEASURE_WITH_UNIT(LENGTH_MEASURE(0.01),#363,
'DISTANCE_ACCURACY_VALUE',
'Maximum model space distance between geometric entities at asserted c
onnectivities');
#360=UNCERTAINTY_MEASURE_WITH_UNIT(LENGTH_MEASURE(0.01),#363,
'DISTANCE_ACCURACY_VALUE',
'Maximum model space distance between geometric entities at asserted c
onnectivities');
#361=(
GEOMETRIC_REPRESENTATION_CONTEXT(3)
GLOBAL_UNCERTAINTY_ASSIGNED_CONTEXT((#359))
GLOBAL_UNIT_ASSIGNED_CONTEXT((#363,#365,#366))
REPRESENTATION_CONTEXT('','3D')
);
#362=(
GEOMETRIC_REPRESENTATION_CONTEXT(3)
GLOBAL_UNCERTAINTY_ASSIGNED_CONTEXT((#360))
GLOBAL_UNIT_ASSIGNED_CONTEXT((#363,#365,#366))
REPRESENTATION_CONTEXT('','3D')
);
#363=(
LENGTH_UNIT()
NAMED_UNIT(*)
SI_UNIT(.MILLI.,.METRE.)
);
#364=(
LENGTH_UNIT()
NAMED_UNIT(*)
SI_UNIT($,.METRE.)
);
#365=(
NAMED_UNIT(*)
PLANE_ANGLE_UNIT()
SI_UNIT($,.RADIAN.)
);
#366=(
NAMED_UNIT(*)
SI_UNIT($,.STERADIAN.)
SOLID_ANGLE_UNIT()
);
#367=SHAPE_DEFINITION_REPRESENTATION(#368,#369);
#368=PRODUCT_DEFINITION_SHAPE('',$,#371);
#369=SHAPE_REPRESENTATION('',(#219),#361);
#370=PRODUCT_DEFINITION_CONTEXT('part definition',#375,'design');
#371=PRODUCT_DEFINITION('TMB.005-00','Heat Shink v4',#372,#370);
#372=PRODUCT_DEFINITION_FORMATION('',$,#377);
#373=PRODUCT_RELATED_PRODUCT_CATEGORY('Heat Shink v4','Heat Shink v4',(#377));
#374=APPLICATION_PROTOCOL_DEFINITION('international standard',
'automotive_design',2009,#375);
#375=APPLICATION_CONTEXT(
'Core Data for Automotive Mechanical Design Process');
#376=PRODUCT_CONTEXT('part definition',#375,'mechanical');
#377=PRODUCT('TMB.005-00','Heat Shink v4',$,(#376));
#378=PRESENTATION_STYLE_ASSIGNMENT((#379));
#379=SURFACE_STYLE_USAGE(.BOTH.,#380);
#380=SURFACE_SIDE_STYLE('',(#381));
#381=SURFACE_STYLE_FILL_AREA(#382);
#382=FILL_AREA_STYLE('Aluminium - Satin\X\E9',(#383));
#383=FILL_AREA_STYLE_COLOUR('Aluminium - Satin\X\E9',#384);
#384=COLOUR_RGB('Aluminium - Satin\X\E9',0.96078431372549,0.96078431372549,
0.964705882352941);
ENDSEC;
END-ISO-10303-21;
