ISO-10303-21;
HEADER;
FILE_DESCRIPTION(('CATIA V5 STEP Exchange'),'2;1');

FILE_NAME('C:\\Users\\victo\\Documents\\CAO\\Sabot\\Sabot.stp','2024-02-13T10:44:43+00:00',('none'),('none'),'Version 5-6 Release 2013','CATIA V5 STEP AP203','none');

FILE_SCHEMA(('CONFIG_CONTROL_DESIGN'));

ENDSEC;
DATA;
#5=PRODUCT('Sabot','','',(#2)) ;
#56=PRODUCT('Part1','','',(#2)) ;
#1=APPLICATION_CONTEXT('configuration controlled 3D design of mechanical parts and assemblies') ;
#17=PRODUCT_DEFINITION('',' ',#6,#3) ;
#19=SECURITY_CLASSIFICATION(' ',' ',#18) ;
#18=SECURITY_CLASSIFICATION_LEVEL('unclassified') ;
#63=CARTESIAN_POINT('Axis2P3D Location',(0.,-25.,130.)) ;
#68=CARTESIAN_POINT('Line Origine',(-500.,-25.,140.)) ;
#72=CARTESIAN_POINT('Vertex',(-500.,-25.,150.)) ;
#74=CARTESIAN_POINT('Vertex',(-500.,-25.,130.)) ;
#77=CARTESIAN_POINT('Line Origine',(-250.,-25.,130.)) ;
#81=CARTESIAN_POINT('Vertex',(0.,-25.,130.)) ;
#84=CARTESIAN_POINT('Line Origine',(0.,-25.,140.)) ;
#88=CARTESIAN_POINT('Vertex',(0.,-25.,150.)) ;
#91=CARTESIAN_POINT('Line Origine',(-250.,-25.,150.)) ;
#103=CARTESIAN_POINT('Axis2P3D Location',(0.,-70.,130.)) ;
#108=CARTESIAN_POINT('Line Origine',(-500.,-47.5,130.)) ;
#112=CARTESIAN_POINT('Vertex',(-500.,-70.,130.)) ;
#115=CARTESIAN_POINT('Line Origine',(-250.,-70.,130.)) ;
#119=CARTESIAN_POINT('Vertex',(0.,-70.,130.)) ;
#122=CARTESIAN_POINT('Line Origine',(0.,-47.5,130.)) ;
#134=CARTESIAN_POINT('Axis2P3D Location',(0.,-70.,110.)) ;
#139=CARTESIAN_POINT('Line Origine',(-500.,-70.,120.)) ;
#143=CARTESIAN_POINT('Vertex',(-500.,-70.,110.)) ;
#146=CARTESIAN_POINT('Line Origine',(-250.,-70.,110.)) ;
#150=CARTESIAN_POINT('Vertex',(0.,-70.,110.)) ;
#153=CARTESIAN_POINT('Line Origine',(0.,-70.,120.)) ;
#165=CARTESIAN_POINT('Axis2P3D Location',(0.,-40.,110.)) ;
#170=CARTESIAN_POINT('Line Origine',(-500.,-55.,110.)) ;
#174=CARTESIAN_POINT('Vertex',(-500.,-40.,110.)) ;
#177=CARTESIAN_POINT('Line Origine',(-250.,-40.,110.)) ;
#181=CARTESIAN_POINT('Vertex',(0.,-40.,110.)) ;
#184=CARTESIAN_POINT('Line Origine',(0.,-55.,110.)) ;
#196=CARTESIAN_POINT('Axis2P3D Location',(0.,-40.,30.)) ;
#201=CARTESIAN_POINT('Line Origine',(-500.,-40.,70.)) ;
#205=CARTESIAN_POINT('Vertex',(-500.,-40.,30.)) ;
#208=CARTESIAN_POINT('Line Origine',(-250.,-40.,30.)) ;
#212=CARTESIAN_POINT('Vertex',(0.,-40.,30.)) ;
#215=CARTESIAN_POINT('Line Origine',(0.,-40.,70.)) ;
#227=CARTESIAN_POINT('Axis2P3D Location',(0.,-20.,30.)) ;
#232=CARTESIAN_POINT('Line Origine',(-500.,-30.,30.)) ;
#236=CARTESIAN_POINT('Vertex',(-500.,-20.,30.)) ;
#239=CARTESIAN_POINT('Line Origine',(-250.,-20.,30.)) ;
#243=CARTESIAN_POINT('Vertex',(0.,-20.,30.)) ;
#246=CARTESIAN_POINT('Line Origine',(0.,-30.,30.)) ;
#258=CARTESIAN_POINT('Axis2P3D Location',(0.,-20.,-3.5527136788E-015)) ;
#263=CARTESIAN_POINT('Line Origine',(-500.,-20.,15.)) ;
#267=CARTESIAN_POINT('Vertex',(-500.,-20.,-3.5527136788E-015)) ;
#270=CARTESIAN_POINT('Line Origine',(-250.,-20.,-3.5527136788E-015)) ;
#274=CARTESIAN_POINT('Vertex',(0.,-20.,-3.5527136788E-015)) ;
#277=CARTESIAN_POINT('Line Origine',(0.,-20.,15.)) ;
#289=CARTESIAN_POINT('Axis2P3D Location',(0.,20.,0.)) ;
#294=CARTESIAN_POINT('Line Origine',(-500.,0.,0.)) ;
#298=CARTESIAN_POINT('Vertex',(-500.,20.,0.)) ;
#301=CARTESIAN_POINT('Line Origine',(-250.,20.,0.)) ;
#305=CARTESIAN_POINT('Vertex',(0.,20.,0.)) ;
#308=CARTESIAN_POINT('Line Origine',(0.,0.,0.)) ;
#320=CARTESIAN_POINT('Axis2P3D Location',(0.,20.,30.)) ;
#325=CARTESIAN_POINT('Line Origine',(-500.,20.,15.)) ;
#329=CARTESIAN_POINT('Vertex',(-500.,20.,30.)) ;
#332=CARTESIAN_POINT('Line Origine',(-250.,20.,30.)) ;
#336=CARTESIAN_POINT('Vertex',(0.,20.,30.)) ;
#339=CARTESIAN_POINT('Line Origine',(0.,20.,15.)) ;
#351=CARTESIAN_POINT('Line Origine',(-500.,30.,30.)) ;
#355=CARTESIAN_POINT('Vertex',(-500.,40.,30.)) ;
#358=CARTESIAN_POINT('Line Origine',(-250.,40.,30.)) ;
#362=CARTESIAN_POINT('Vertex',(0.,40.,30.)) ;
#365=CARTESIAN_POINT('Line Origine',(0.,30.,30.)) ;
#377=CARTESIAN_POINT('Axis2P3D Location',(0.,40.,110.)) ;
#382=CARTESIAN_POINT('Line Origine',(-500.,40.,70.)) ;
#386=CARTESIAN_POINT('Vertex',(-500.,40.,110.)) ;
#389=CARTESIAN_POINT('Line Origine',(-250.,40.,110.)) ;
#393=CARTESIAN_POINT('Vertex',(0.,40.,110.)) ;
#396=CARTESIAN_POINT('Line Origine',(0.,40.,70.)) ;
#408=CARTESIAN_POINT('Line Origine',(-500.,55.,110.)) ;
#412=CARTESIAN_POINT('Vertex',(-500.,70.,110.)) ;
#415=CARTESIAN_POINT('Line Origine',(-250.,70.,110.)) ;
#419=CARTESIAN_POINT('Vertex',(0.,70.,110.)) ;
#422=CARTESIAN_POINT('Line Origine',(0.,55.,110.)) ;
#434=CARTESIAN_POINT('Axis2P3D Location',(0.,70.,130.)) ;
#439=CARTESIAN_POINT('Line Origine',(-500.,70.,120.)) ;
#443=CARTESIAN_POINT('Vertex',(-500.,70.,130.)) ;
#446=CARTESIAN_POINT('Line Origine',(-250.,70.,130.)) ;
#450=CARTESIAN_POINT('Vertex',(0.,70.,130.)) ;
#453=CARTESIAN_POINT('Line Origine',(0.,70.,120.)) ;
#465=CARTESIAN_POINT('Line Origine',(-500.,47.5,130.)) ;
#469=CARTESIAN_POINT('Vertex',(-500.,25.,130.)) ;
#472=CARTESIAN_POINT('Line Origine',(-250.,25.,130.)) ;
#476=CARTESIAN_POINT('Vertex',(0.,25.,130.)) ;
#479=CARTESIAN_POINT('Line Origine',(0.,47.5,130.)) ;
#491=CARTESIAN_POINT('Axis2P3D Location',(0.,25.,150.)) ;
#496=CARTESIAN_POINT('Line Origine',(-500.,25.,140.)) ;
#500=CARTESIAN_POINT('Vertex',(-500.,25.,150.)) ;
#503=CARTESIAN_POINT('Line Origine',(-250.,25.,150.)) ;
#507=CARTESIAN_POINT('Vertex',(0.,25.,150.)) ;
#510=CARTESIAN_POINT('Line Origine',(0.,25.,140.)) ;
#522=CARTESIAN_POINT('Axis2P3D Location',(0.,-25.,150.)) ;
#527=CARTESIAN_POINT('Line Origine',(-500.,0.,150.)) ;
#532=CARTESIAN_POINT('Line Origine',(0.,0.,150.)) ;
#544=CARTESIAN_POINT('Axis2P3D Location',(0.,0.,0.)) ;
#568=CARTESIAN_POINT('Axis2P3D Location',(-500.,0.,0.)) ;
#602=CARTESIAN_POINT('NONE',(0.,0.,0.)) ;
#603=CARTESIAN_POINT('NONE',(0.,0.,0.)) ;
#64=DIRECTION('Axis2P3D Direction',(0.,-1.,0.)) ;
#65=DIRECTION('Axis2P3D XDirection',(0.,0.,1.)) ;
#69=DIRECTION('Vector Direction',(0.,0.,1.)) ;
#78=DIRECTION('Vector Direction',(-1.,0.,0.)) ;
#85=DIRECTION('Vector Direction',(0.,0.,1.)) ;
#92=DIRECTION('Vector Direction',(-1.,0.,0.)) ;
#104=DIRECTION('Axis2P3D Direction',(0.,-0.,1.)) ;
#105=DIRECTION('Axis2P3D XDirection',(0.,1.,0.)) ;
#109=DIRECTION('Vector Direction',(0.,1.,0.)) ;
#116=DIRECTION('Vector Direction',(-1.,0.,0.)) ;
#123=DIRECTION('Vector Direction',(0.,1.,0.)) ;
#135=DIRECTION('Axis2P3D Direction',(0.,-1.,0.)) ;
#136=DIRECTION('Axis2P3D XDirection',(0.,0.,1.)) ;
#140=DIRECTION('Vector Direction',(0.,0.,1.)) ;
#147=DIRECTION('Vector Direction',(-1.,0.,0.)) ;
#154=DIRECTION('Vector Direction',(0.,0.,1.)) ;
#166=DIRECTION('Axis2P3D Direction',(-0.,-0.,-1.)) ;
#167=DIRECTION('Axis2P3D XDirection',(0.,-1.,0.)) ;
#171=DIRECTION('Vector Direction',(0.,-1.,0.)) ;
#178=DIRECTION('Vector Direction',(-1.,0.,0.)) ;
#185=DIRECTION('Vector Direction',(0.,-1.,0.)) ;
#197=DIRECTION('Axis2P3D Direction',(0.,-1.,0.)) ;
#198=DIRECTION('Axis2P3D XDirection',(0.,0.,1.)) ;
#202=DIRECTION('Vector Direction',(0.,0.,1.)) ;
#209=DIRECTION('Vector Direction',(-1.,0.,0.)) ;
#216=DIRECTION('Vector Direction',(0.,0.,1.)) ;
#228=DIRECTION('Axis2P3D Direction',(-0.,-0.,-1.)) ;
#229=DIRECTION('Axis2P3D XDirection',(0.,-1.,0.)) ;
#233=DIRECTION('Vector Direction',(0.,-1.,0.)) ;
#240=DIRECTION('Vector Direction',(-1.,0.,0.)) ;
#247=DIRECTION('Vector Direction',(0.,-1.,0.)) ;
#259=DIRECTION('Axis2P3D Direction',(0.,-1.,0.)) ;
#260=DIRECTION('Axis2P3D XDirection',(0.,0.,1.)) ;
#264=DIRECTION('Vector Direction',(0.,0.,1.)) ;
#271=DIRECTION('Vector Direction',(-1.,0.,0.)) ;
#278=DIRECTION('Vector Direction',(0.,0.,1.)) ;
#290=DIRECTION('Axis2P3D Direction',(-0.,-0.,-1.)) ;
#291=DIRECTION('Axis2P3D XDirection',(0.,-1.,0.)) ;
#295=DIRECTION('Vector Direction',(0.,-1.,0.)) ;
#302=DIRECTION('Vector Direction',(-1.,0.,0.)) ;
#309=DIRECTION('Vector Direction',(0.,-1.,0.)) ;
#321=DIRECTION('Axis2P3D Direction',(0.,1.,0.)) ;
#322=DIRECTION('Axis2P3D XDirection',(0.,0.,-1.)) ;
#326=DIRECTION('Vector Direction',(0.,0.,-1.)) ;
#333=DIRECTION('Vector Direction',(-1.,0.,0.)) ;
#340=DIRECTION('Vector Direction',(0.,0.,-1.)) ;
#352=DIRECTION('Vector Direction',(0.,-1.,0.)) ;
#359=DIRECTION('Vector Direction',(-1.,0.,0.)) ;
#366=DIRECTION('Vector Direction',(0.,-1.,0.)) ;
#378=DIRECTION('Axis2P3D Direction',(0.,1.,0.)) ;
#379=DIRECTION('Axis2P3D XDirection',(0.,0.,-1.)) ;
#383=DIRECTION('Vector Direction',(0.,0.,-1.)) ;
#390=DIRECTION('Vector Direction',(-1.,0.,0.)) ;
#397=DIRECTION('Vector Direction',(0.,0.,-1.)) ;
#409=DIRECTION('Vector Direction',(0.,-1.,0.)) ;
#416=DIRECTION('Vector Direction',(-1.,0.,0.)) ;
#423=DIRECTION('Vector Direction',(0.,-1.,0.)) ;
#435=DIRECTION('Axis2P3D Direction',(0.,1.,0.)) ;
#436=DIRECTION('Axis2P3D XDirection',(0.,0.,-1.)) ;
#440=DIRECTION('Vector Direction',(0.,0.,-1.)) ;
#447=DIRECTION('Vector Direction',(-1.,0.,0.)) ;
#454=DIRECTION('Vector Direction',(0.,0.,-1.)) ;
#466=DIRECTION('Vector Direction',(0.,1.,0.)) ;
#473=DIRECTION('Vector Direction',(-1.,0.,0.)) ;
#480=DIRECTION('Vector Direction',(0.,1.,0.)) ;
#492=DIRECTION('Axis2P3D Direction',(0.,1.,0.)) ;
#493=DIRECTION('Axis2P3D XDirection',(0.,0.,-1.)) ;
#497=DIRECTION('Vector Direction',(0.,0.,-1.)) ;
#504=DIRECTION('Vector Direction',(-1.,0.,0.)) ;
#511=DIRECTION('Vector Direction',(0.,0.,-1.)) ;
#523=DIRECTION('Axis2P3D Direction',(0.,-0.,1.)) ;
#524=DIRECTION('Axis2P3D XDirection',(0.,1.,0.)) ;
#528=DIRECTION('Vector Direction',(0.,1.,0.)) ;
#533=DIRECTION('Vector Direction',(0.,1.,0.)) ;
#545=DIRECTION('Axis2P3D Direction',(1.,0.,0.)) ;
#546=DIRECTION('Axis2P3D XDirection',(0.,1.,0.)) ;
#569=DIRECTION('Axis2P3D Direction',(1.,0.,0.)) ;
#570=DIRECTION('Axis2P3D XDirection',(0.,1.,0.)) ;
#604=DIRECTION('NONE',(1.,0.,0.)) ;
#605=DIRECTION('NONE',(0.,0.,1.)) ;
#606=DIRECTION('NONE',(1.,0.,0.)) ;
#607=DIRECTION('NONE',(0.,0.,1.)) ;
#66=AXIS2_PLACEMENT_3D('Plane Axis2P3D',#63,#64,#65) ;
#106=AXIS2_PLACEMENT_3D('Plane Axis2P3D',#103,#104,#105) ;
#137=AXIS2_PLACEMENT_3D('Plane Axis2P3D',#134,#135,#136) ;
#168=AXIS2_PLACEMENT_3D('Plane Axis2P3D',#165,#166,#167) ;
#199=AXIS2_PLACEMENT_3D('Plane Axis2P3D',#196,#197,#198) ;
#230=AXIS2_PLACEMENT_3D('Plane Axis2P3D',#227,#228,#229) ;
#261=AXIS2_PLACEMENT_3D('Plane Axis2P3D',#258,#259,#260) ;
#292=AXIS2_PLACEMENT_3D('Plane Axis2P3D',#289,#290,#291) ;
#323=AXIS2_PLACEMENT_3D('Plane Axis2P3D',#320,#321,#322) ;
#380=AXIS2_PLACEMENT_3D('Plane Axis2P3D',#377,#378,#379) ;
#437=AXIS2_PLACEMENT_3D('Plane Axis2P3D',#434,#435,#436) ;
#494=AXIS2_PLACEMENT_3D('Plane Axis2P3D',#491,#492,#493) ;
#525=AXIS2_PLACEMENT_3D('Plane Axis2P3D',#522,#523,#524) ;
#547=AXIS2_PLACEMENT_3D('Plane Axis2P3D',#544,#545,#546) ;
#571=AXIS2_PLACEMENT_3D('Plane Axis2P3D',#568,#569,#570) ;
#600=AXIS2_PLACEMENT_3D(' ',#603,#607,#606) ;
#601=AXIS2_PLACEMENT_3D(' ',#602,#605,#604) ;
#45=PRODUCT_DEFINITION_SHAPE(' ',' ',#17) ;
#61=PRODUCT_DEFINITION_SHAPE(' ',' ',#58) ;
#596=PRODUCT_DEFINITION_SHAPE(' ',' ',#595) ;
#34=APPROVAL_PERSON_ORGANIZATION(#28,#24,#22) ;
#28=PERSON_AND_ORGANIZATION(#25,#26) ;
#25=PERSON(' ',' ',' ',$,$,$) ;
#26=ORGANIZATION(' ',' ',' ') ;
#24=APPROVAL(#23,' ') ;
#23=APPROVAL_STATUS('not_yet_approved') ;
#22=APPROVAL_ROLE('APPROVER') ;
#13=DATE_AND_TIME(#11,#12) ;
#12=LOCAL_TIME(11,44,42.,#10) ;
#10=COORDINATED_UNIVERSAL_TIME_OFFSET(0,0,.AHEAD.) ;
#97=ORIENTED_EDGE('',*,*,#76,.T.) ;
#98=ORIENTED_EDGE('',*,*,#83,.F.) ;
#99=ORIENTED_EDGE('',*,*,#90,.F.) ;
#100=ORIENTED_EDGE('',*,*,#95,.T.) ;
#128=ORIENTED_EDGE('',*,*,#114,.T.) ;
#129=ORIENTED_EDGE('',*,*,#121,.F.) ;
#130=ORIENTED_EDGE('',*,*,#126,.F.) ;
#131=ORIENTED_EDGE('',*,*,#83,.T.) ;
#159=ORIENTED_EDGE('',*,*,#145,.T.) ;
#160=ORIENTED_EDGE('',*,*,#152,.F.) ;
#161=ORIENTED_EDGE('',*,*,#157,.F.) ;
#162=ORIENTED_EDGE('',*,*,#121,.T.) ;
#190=ORIENTED_EDGE('',*,*,#176,.T.) ;
#191=ORIENTED_EDGE('',*,*,#183,.F.) ;
#192=ORIENTED_EDGE('',*,*,#188,.F.) ;
#193=ORIENTED_EDGE('',*,*,#152,.T.) ;
#221=ORIENTED_EDGE('',*,*,#207,.T.) ;
#222=ORIENTED_EDGE('',*,*,#214,.F.) ;
#223=ORIENTED_EDGE('',*,*,#219,.F.) ;
#224=ORIENTED_EDGE('',*,*,#183,.T.) ;
#252=ORIENTED_EDGE('',*,*,#238,.T.) ;
#253=ORIENTED_EDGE('',*,*,#245,.F.) ;
#254=ORIENTED_EDGE('',*,*,#250,.F.) ;
#255=ORIENTED_EDGE('',*,*,#214,.T.) ;
#283=ORIENTED_EDGE('',*,*,#269,.T.) ;
#284=ORIENTED_EDGE('',*,*,#276,.F.) ;
#285=ORIENTED_EDGE('',*,*,#281,.F.) ;
#286=ORIENTED_EDGE('',*,*,#245,.T.) ;
#314=ORIENTED_EDGE('',*,*,#300,.T.) ;
#315=ORIENTED_EDGE('',*,*,#307,.F.) ;
#316=ORIENTED_EDGE('',*,*,#312,.F.) ;
#317=ORIENTED_EDGE('',*,*,#276,.T.) ;
#345=ORIENTED_EDGE('',*,*,#331,.T.) ;
#346=ORIENTED_EDGE('',*,*,#338,.F.) ;
#347=ORIENTED_EDGE('',*,*,#343,.F.) ;
#348=ORIENTED_EDGE('',*,*,#307,.T.) ;
#371=ORIENTED_EDGE('',*,*,#357,.T.) ;
#372=ORIENTED_EDGE('',*,*,#364,.F.) ;
#373=ORIENTED_EDGE('',*,*,#369,.F.) ;
#374=ORIENTED_EDGE('',*,*,#338,.T.) ;
#402=ORIENTED_EDGE('',*,*,#388,.T.) ;
#403=ORIENTED_EDGE('',*,*,#395,.F.) ;
#404=ORIENTED_EDGE('',*,*,#400,.F.) ;
#405=ORIENTED_EDGE('',*,*,#364,.T.) ;
#428=ORIENTED_EDGE('',*,*,#414,.T.) ;
#429=ORIENTED_EDGE('',*,*,#421,.F.) ;
#430=ORIENTED_EDGE('',*,*,#426,.F.) ;
#431=ORIENTED_EDGE('',*,*,#395,.T.) ;
#459=ORIENTED_EDGE('',*,*,#445,.T.) ;
#460=ORIENTED_EDGE('',*,*,#452,.F.) ;
#461=ORIENTED_EDGE('',*,*,#457,.F.) ;
#462=ORIENTED_EDGE('',*,*,#421,.T.) ;
#485=ORIENTED_EDGE('',*,*,#471,.T.) ;
#486=ORIENTED_EDGE('',*,*,#478,.F.) ;
#487=ORIENTED_EDGE('',*,*,#483,.F.) ;
#488=ORIENTED_EDGE('',*,*,#452,.T.) ;
#516=ORIENTED_EDGE('',*,*,#502,.T.) ;
#517=ORIENTED_EDGE('',*,*,#509,.F.) ;
#518=ORIENTED_EDGE('',*,*,#514,.F.) ;
#519=ORIENTED_EDGE('',*,*,#478,.T.) ;
#538=ORIENTED_EDGE('',*,*,#531,.T.) ;
#539=ORIENTED_EDGE('',*,*,#95,.F.) ;
#540=ORIENTED_EDGE('',*,*,#536,.F.) ;
#541=ORIENTED_EDGE('',*,*,#509,.T.) ;
#550=ORIENTED_EDGE('',*,*,#90,.T.) ;
#551=ORIENTED_EDGE('',*,*,#126,.T.) ;
#552=ORIENTED_EDGE('',*,*,#157,.T.) ;
#553=ORIENTED_EDGE('',*,*,#188,.T.) ;
#554=ORIENTED_EDGE('',*,*,#219,.T.) ;
#555=ORIENTED_EDGE('',*,*,#250,.T.) ;
#556=ORIENTED_EDGE('',*,*,#281,.T.) ;
#557=ORIENTED_EDGE('',*,*,#312,.T.) ;
#558=ORIENTED_EDGE('',*,*,#343,.T.) ;
#559=ORIENTED_EDGE('',*,*,#369,.T.) ;
#560=ORIENTED_EDGE('',*,*,#400,.T.) ;
#561=ORIENTED_EDGE('',*,*,#426,.T.) ;
#562=ORIENTED_EDGE('',*,*,#457,.T.) ;
#563=ORIENTED_EDGE('',*,*,#483,.T.) ;
#564=ORIENTED_EDGE('',*,*,#514,.T.) ;
#565=ORIENTED_EDGE('',*,*,#536,.T.) ;
#574=ORIENTED_EDGE('',*,*,#531,.F.) ;
#575=ORIENTED_EDGE('',*,*,#502,.F.) ;
#576=ORIENTED_EDGE('',*,*,#471,.F.) ;
#577=ORIENTED_EDGE('',*,*,#445,.F.) ;
#578=ORIENTED_EDGE('',*,*,#414,.F.) ;
#579=ORIENTED_EDGE('',*,*,#388,.F.) ;
#580=ORIENTED_EDGE('',*,*,#357,.F.) ;
#581=ORIENTED_EDGE('',*,*,#331,.F.) ;
#582=ORIENTED_EDGE('',*,*,#300,.F.) ;
#583=ORIENTED_EDGE('',*,*,#269,.F.) ;
#584=ORIENTED_EDGE('',*,*,#238,.F.) ;
#585=ORIENTED_EDGE('',*,*,#207,.F.) ;
#586=ORIENTED_EDGE('',*,*,#176,.F.) ;
#587=ORIENTED_EDGE('',*,*,#145,.F.) ;
#588=ORIENTED_EDGE('',*,*,#114,.F.) ;
#589=ORIENTED_EDGE('',*,*,#76,.F.) ;
#62=CLOSED_SHELL('Closed Shell',(#102,#133,#164,#195,#226,#257,#288,#319,#350,#376,#407,#433,#464,#490,#521,#543,#567,#591)) ;
#599=ITEM_DEFINED_TRANSFORMATION(' ',' ',#601,#600) ;
#70=VECTOR('Line Direction',#69,1.) ;
#79=VECTOR('Line Direction',#78,1.) ;
#86=VECTOR('Line Direction',#85,1.) ;
#93=VECTOR('Line Direction',#92,1.) ;
#110=VECTOR('Line Direction',#109,1.) ;
#117=VECTOR('Line Direction',#116,1.) ;
#124=VECTOR('Line Direction',#123,1.) ;
#141=VECTOR('Line Direction',#140,1.) ;
#148=VECTOR('Line Direction',#147,1.) ;
#155=VECTOR('Line Direction',#154,1.) ;
#172=VECTOR('Line Direction',#171,1.) ;
#179=VECTOR('Line Direction',#178,1.) ;
#186=VECTOR('Line Direction',#185,1.) ;
#203=VECTOR('Line Direction',#202,1.) ;
#210=VECTOR('Line Direction',#209,1.) ;
#217=VECTOR('Line Direction',#216,1.) ;
#234=VECTOR('Line Direction',#233,1.) ;
#241=VECTOR('Line Direction',#240,1.) ;
#248=VECTOR('Line Direction',#247,1.) ;
#265=VECTOR('Line Direction',#264,1.) ;
#272=VECTOR('Line Direction',#271,1.) ;
#279=VECTOR('Line Direction',#278,1.) ;
#296=VECTOR('Line Direction',#295,1.) ;
#303=VECTOR('Line Direction',#302,1.) ;
#310=VECTOR('Line Direction',#309,1.) ;
#327=VECTOR('Line Direction',#326,1.) ;
#334=VECTOR('Line Direction',#333,1.) ;
#341=VECTOR('Line Direction',#340,1.) ;
#353=VECTOR('Line Direction',#352,1.) ;
#360=VECTOR('Line Direction',#359,1.) ;
#367=VECTOR('Line Direction',#366,1.) ;
#384=VECTOR('Line Direction',#383,1.) ;
#391=VECTOR('Line Direction',#390,1.) ;
#398=VECTOR('Line Direction',#397,1.) ;
#410=VECTOR('Line Direction',#409,1.) ;
#417=VECTOR('Line Direction',#416,1.) ;
#424=VECTOR('Line Direction',#423,1.) ;
#441=VECTOR('Line Direction',#440,1.) ;
#448=VECTOR('Line Direction',#447,1.) ;
#455=VECTOR('Line Direction',#454,1.) ;
#467=VECTOR('Line Direction',#466,1.) ;
#474=VECTOR('Line Direction',#473,1.) ;
#481=VECTOR('Line Direction',#480,1.) ;
#498=VECTOR('Line Direction',#497,1.) ;
#505=VECTOR('Line Direction',#504,1.) ;
#512=VECTOR('Line Direction',#511,1.) ;
#529=VECTOR('Line Direction',#528,1.) ;
#534=VECTOR('Line Direction',#533,1.) ;
#593=ADVANCED_BREP_SHAPE_REPRESENTATION('NONE',(#592),#53) ;
#44=SHAPE_REPRESENTATION(' ',(#600),#51) ;
#54=SHAPE_REPRESENTATION(' ',(#601),#53) ;
#102=ADVANCED_FACE('Corps principal',(#101),#67,.T.) ;
#133=ADVANCED_FACE('Corps principal',(#132),#107,.T.) ;
#164=ADVANCED_FACE('Corps principal',(#163),#138,.T.) ;
#195=ADVANCED_FACE('Corps principal',(#194),#169,.T.) ;
#226=ADVANCED_FACE('Corps principal',(#225),#200,.T.) ;
#257=ADVANCED_FACE('Corps principal',(#256),#231,.T.) ;
#288=ADVANCED_FACE('Corps principal',(#287),#262,.T.) ;
#319=ADVANCED_FACE('Corps principal',(#318),#293,.T.) ;
#350=ADVANCED_FACE('Corps principal',(#349),#324,.T.) ;
#376=ADVANCED_FACE('Corps principal',(#375),#231,.T.) ;
#407=ADVANCED_FACE('Corps principal',(#406),#381,.T.) ;
#433=ADVANCED_FACE('Corps principal',(#432),#169,.T.) ;
#464=ADVANCED_FACE('Corps principal',(#463),#438,.T.) ;
#490=ADVANCED_FACE('Corps principal',(#489),#107,.T.) ;
#521=ADVANCED_FACE('Corps principal',(#520),#495,.T.) ;
#543=ADVANCED_FACE('Corps principal',(#542),#526,.T.) ;
#567=ADVANCED_FACE('Corps principal',(#566),#548,.T.) ;
#591=ADVANCED_FACE('Corps principal',(#590),#572,.F.) ;
#4=APPLICATION_PROTOCOL_DEFINITION('international standard','config_control_design',1994,#1) ;
#35=APPROVAL_DATE_TIME(#13,#24) ;
#592=MANIFOLD_SOLID_BREP('Corps principal',#62) ;
#11=CALENDAR_DATE(2024,13,2) ;
#33=CC_DESIGN_APPROVAL(#24,(#19,#6,#17)) ;
#21=CC_DESIGN_DATE_AND_TIME_ASSIGNMENT(#13,#20,(#19)) ;
#32=CC_DESIGN_DATE_AND_TIME_ASSIGNMENT(#13,#31,(#17)) ;
#20=DATE_TIME_ROLE('classification_date') ;
#31=DATE_TIME_ROLE('creation_date') ;
#30=CC_DESIGN_PERSON_AND_ORGANIZATION_ASSIGNMENT(#28,#29,(#19)) ;
#36=CC_DESIGN_PERSON_AND_ORGANIZATION_ASSIGNMENT(#28,#37,(#6)) ;
#38=CC_DESIGN_PERSON_AND_ORGANIZATION_ASSIGNMENT(#28,#39,(#6,#17)) ;
#40=CC_DESIGN_PERSON_AND_ORGANIZATION_ASSIGNMENT(#28,#41,(#5)) ;
#29=PERSON_AND_ORGANIZATION_ROLE('classification_officer') ;
#37=PERSON_AND_ORGANIZATION_ROLE('design_supplier') ;
#39=PERSON_AND_ORGANIZATION_ROLE('creator') ;
#41=PERSON_AND_ORGANIZATION_ROLE('design_owner') ;
#42=CC_DESIGN_SECURITY_CLASSIFICATION(#19,(#6,#595)) ;
#60=DOCUMENT('1','Sabot.CATPart','CATPart document',#59) ;
#59=DOCUMENT_TYPE('') ;
#597=CONTEXT_DEPENDENT_SHAPE_REPRESENTATION(#598,#596) ;
#594=SHAPE_REPRESENTATION_RELATIONSHIP(' ',' ',#54,#593) ;
#3=DESIGN_CONTEXT(' ',#1,'design') ;
#76=EDGE_CURVE('',#73,#75,#71,.F.) ;
#83=EDGE_CURVE('',#82,#75,#80,.T.) ;
#90=EDGE_CURVE('',#89,#82,#87,.F.) ;
#95=EDGE_CURVE('',#89,#73,#94,.T.) ;
#114=EDGE_CURVE('',#75,#113,#111,.F.) ;
#121=EDGE_CURVE('',#120,#113,#118,.T.) ;
#126=EDGE_CURVE('',#82,#120,#125,.F.) ;
#145=EDGE_CURVE('',#113,#144,#142,.F.) ;
#152=EDGE_CURVE('',#151,#144,#149,.T.) ;
#157=EDGE_CURVE('',#120,#151,#156,.F.) ;
#176=EDGE_CURVE('',#144,#175,#173,.F.) ;
#183=EDGE_CURVE('',#182,#175,#180,.T.) ;
#188=EDGE_CURVE('',#151,#182,#187,.F.) ;
#207=EDGE_CURVE('',#175,#206,#204,.F.) ;
#214=EDGE_CURVE('',#213,#206,#211,.T.) ;
#219=EDGE_CURVE('',#182,#213,#218,.F.) ;
#238=EDGE_CURVE('',#206,#237,#235,.F.) ;
#245=EDGE_CURVE('',#244,#237,#242,.T.) ;
#250=EDGE_CURVE('',#213,#244,#249,.F.) ;
#269=EDGE_CURVE('',#237,#268,#266,.F.) ;
#276=EDGE_CURVE('',#275,#268,#273,.T.) ;
#281=EDGE_CURVE('',#244,#275,#280,.F.) ;
#300=EDGE_CURVE('',#268,#299,#297,.F.) ;
#307=EDGE_CURVE('',#306,#299,#304,.T.) ;
#312=EDGE_CURVE('',#275,#306,#311,.F.) ;
#331=EDGE_CURVE('',#299,#330,#328,.F.) ;
#338=EDGE_CURVE('',#337,#330,#335,.T.) ;
#343=EDGE_CURVE('',#306,#337,#342,.F.) ;
#357=EDGE_CURVE('',#330,#356,#354,.F.) ;
#364=EDGE_CURVE('',#363,#356,#361,.T.) ;
#369=EDGE_CURVE('',#337,#363,#368,.F.) ;
#388=EDGE_CURVE('',#356,#387,#385,.F.) ;
#395=EDGE_CURVE('',#394,#387,#392,.T.) ;
#400=EDGE_CURVE('',#363,#394,#399,.F.) ;
#414=EDGE_CURVE('',#387,#413,#411,.F.) ;
#421=EDGE_CURVE('',#420,#413,#418,.T.) ;
#426=EDGE_CURVE('',#394,#420,#425,.F.) ;
#445=EDGE_CURVE('',#413,#444,#442,.F.) ;
#452=EDGE_CURVE('',#451,#444,#449,.T.) ;
#457=EDGE_CURVE('',#420,#451,#456,.F.) ;
#471=EDGE_CURVE('',#444,#470,#468,.F.) ;
#478=EDGE_CURVE('',#477,#470,#475,.T.) ;
#483=EDGE_CURVE('',#451,#477,#482,.F.) ;
#502=EDGE_CURVE('',#470,#501,#499,.F.) ;
#509=EDGE_CURVE('',#508,#501,#506,.T.) ;
#514=EDGE_CURVE('',#477,#508,#513,.F.) ;
#531=EDGE_CURVE('',#501,#73,#530,.F.) ;
#536=EDGE_CURVE('',#508,#89,#535,.F.) ;
#96=EDGE_LOOP('',(#97,#98,#99,#100)) ;
#127=EDGE_LOOP('',(#128,#129,#130,#131)) ;
#158=EDGE_LOOP('',(#159,#160,#161,#162)) ;
#189=EDGE_LOOP('',(#190,#191,#192,#193)) ;
#220=EDGE_LOOP('',(#221,#222,#223,#224)) ;
#251=EDGE_LOOP('',(#252,#253,#254,#255)) ;
#282=EDGE_LOOP('',(#283,#284,#285,#286)) ;
#313=EDGE_LOOP('',(#314,#315,#316,#317)) ;
#344=EDGE_LOOP('',(#345,#346,#347,#348)) ;
#370=EDGE_LOOP('',(#371,#372,#373,#374)) ;
#401=EDGE_LOOP('',(#402,#403,#404,#405)) ;
#427=EDGE_LOOP('',(#428,#429,#430,#431)) ;
#458=EDGE_LOOP('',(#459,#460,#461,#462)) ;
#484=EDGE_LOOP('',(#485,#486,#487,#488)) ;
#515=EDGE_LOOP('',(#516,#517,#518,#519)) ;
#537=EDGE_LOOP('',(#538,#539,#540,#541)) ;
#549=EDGE_LOOP('',(#550,#551,#552,#553,#554,#555,#556,#557,#558,#559,#560,#561,#562,#563,#564,#565)) ;
#573=EDGE_LOOP('',(#574,#575,#576,#577,#578,#579,#580,#581,#582,#583,#584,#585,#586,#587,#588,#589)) ;
#101=FACE_OUTER_BOUND('',#96,.T.) ;
#132=FACE_OUTER_BOUND('',#127,.T.) ;
#163=FACE_OUTER_BOUND('',#158,.T.) ;
#194=FACE_OUTER_BOUND('',#189,.T.) ;
#225=FACE_OUTER_BOUND('',#220,.T.) ;
#256=FACE_OUTER_BOUND('',#251,.T.) ;
#287=FACE_OUTER_BOUND('',#282,.T.) ;
#318=FACE_OUTER_BOUND('',#313,.T.) ;
#349=FACE_OUTER_BOUND('',#344,.T.) ;
#375=FACE_OUTER_BOUND('',#370,.T.) ;
#406=FACE_OUTER_BOUND('',#401,.T.) ;
#432=FACE_OUTER_BOUND('',#427,.T.) ;
#463=FACE_OUTER_BOUND('',#458,.T.) ;
#489=FACE_OUTER_BOUND('',#484,.T.) ;
#520=FACE_OUTER_BOUND('',#515,.T.) ;
#542=FACE_OUTER_BOUND('',#537,.T.) ;
#566=FACE_OUTER_BOUND('',#549,.T.) ;
#590=FACE_OUTER_BOUND('',#573,.T.) ;
#50=UNCERTAINTY_MEASURE_WITH_UNIT(LENGTH_MEASURE(0.005),#46,'distance_accuracy_value','CONFUSED CURVE UNCERTAINTY') ;
#52=UNCERTAINTY_MEASURE_WITH_UNIT(LENGTH_MEASURE(0.005),#46,'distance_accuracy_value','CONFUSED CURVE UNCERTAINTY') ;
#71=LINE('Line',#68,#70) ;
#80=LINE('Line',#77,#79) ;
#87=LINE('Line',#84,#86) ;
#94=LINE('Line',#91,#93) ;
#111=LINE('Line',#108,#110) ;
#118=LINE('Line',#115,#117) ;
#125=LINE('Line',#122,#124) ;
#142=LINE('Line',#139,#141) ;
#149=LINE('Line',#146,#148) ;
#156=LINE('Line',#153,#155) ;
#173=LINE('Line',#170,#172) ;
#180=LINE('Line',#177,#179) ;
#187=LINE('Line',#184,#186) ;
#204=LINE('Line',#201,#203) ;
#211=LINE('Line',#208,#210) ;
#218=LINE('Line',#215,#217) ;
#235=LINE('Line',#232,#234) ;
#242=LINE('Line',#239,#241) ;
#249=LINE('Line',#246,#248) ;
#266=LINE('Line',#263,#265) ;
#273=LINE('Line',#270,#272) ;
#280=LINE('Line',#277,#279) ;
#297=LINE('Line',#294,#296) ;
#304=LINE('Line',#301,#303) ;
#311=LINE('Line',#308,#310) ;
#328=LINE('Line',#325,#327) ;
#335=LINE('Line',#332,#334) ;
#342=LINE('Line',#339,#341) ;
#354=LINE('Line',#351,#353) ;
#361=LINE('Line',#358,#360) ;
#368=LINE('Line',#365,#367) ;
#385=LINE('Line',#382,#384) ;
#392=LINE('Line',#389,#391) ;
#399=LINE('Line',#396,#398) ;
#411=LINE('Line',#408,#410) ;
#418=LINE('Line',#415,#417) ;
#425=LINE('Line',#422,#424) ;
#442=LINE('Line',#439,#441) ;
#449=LINE('Line',#446,#448) ;
#456=LINE('Line',#453,#455) ;
#468=LINE('Line',#465,#467) ;
#475=LINE('Line',#472,#474) ;
#482=LINE('Line',#479,#481) ;
#499=LINE('Line',#496,#498) ;
#506=LINE('Line',#503,#505) ;
#513=LINE('Line',#510,#512) ;
#530=LINE('Line',#527,#529) ;
#535=LINE('Line',#532,#534) ;
#2=MECHANICAL_CONTEXT(' ',#1,'mechanical') ;
#595=NEXT_ASSEMBLY_USAGE_OCCURRENCE('Sabot','Sabot','',#17,#58,' ') ;
#27=PERSONAL_ADDRESS(' ',' ',' ',' ',' ',' ',' ',' ',' ',' ',' ',' ',(#25),' ') ;
#67=PLANE('',#66) ;
#107=PLANE('',#106) ;
#138=PLANE('',#137) ;
#169=PLANE('',#168) ;
#200=PLANE('',#199) ;
#231=PLANE('',#230) ;
#262=PLANE('',#261) ;
#293=PLANE('',#292) ;
#324=PLANE('',#323) ;
#381=PLANE('',#380) ;
#438=PLANE('',#437) ;
#495=PLANE('',#494) ;
#526=PLANE('',#525) ;
#548=PLANE('',#547) ;
#572=PLANE('',#571) ;
#48=PLANE_ANGLE_MEASURE_WITH_UNIT(PLANE_ANGLE_MEASURE(0.0174532925199),#47) ;
#7=PRODUCT_CATEGORY('part',$) ;
#14=PRODUCT_CATEGORY('part',$) ;
#9=PRODUCT_CATEGORY_RELATIONSHIP(' ',' ',#7,#8) ;
#16=PRODUCT_CATEGORY_RELATIONSHIP(' ',' ',#14,#15) ;
#6=PRODUCT_DEFINITION_FORMATION_WITH_SPECIFIED_SOURCE('',' ',#5,.NOT_KNOWN.) ;
#57=PRODUCT_DEFINITION_FORMATION_WITH_SPECIFIED_SOURCE('',' ',#56,.NOT_KNOWN.) ;
#58=PRODUCT_DEFINITION_WITH_ASSOCIATED_DOCUMENTS('',' ',#57,#3,(#60)) ;
#8=PRODUCT_RELATED_PRODUCT_CATEGORY('detail',$,(#56)) ;
#15=PRODUCT_RELATED_PRODUCT_CATEGORY('part',$,(#5)) ;
#43=SHAPE_DEFINITION_REPRESENTATION(#45,#44) ;
#55=SHAPE_DEFINITION_REPRESENTATION(#61,#54) ;
#73=VERTEX_POINT('',#72) ;
#75=VERTEX_POINT('',#74) ;
#82=VERTEX_POINT('',#81) ;
#89=VERTEX_POINT('',#88) ;
#113=VERTEX_POINT('',#112) ;
#120=VERTEX_POINT('',#119) ;
#144=VERTEX_POINT('',#143) ;
#151=VERTEX_POINT('',#150) ;
#175=VERTEX_POINT('',#174) ;
#182=VERTEX_POINT('',#181) ;
#206=VERTEX_POINT('',#205) ;
#213=VERTEX_POINT('',#212) ;
#237=VERTEX_POINT('',#236) ;
#244=VERTEX_POINT('',#243) ;
#268=VERTEX_POINT('',#267) ;
#275=VERTEX_POINT('',#274) ;
#299=VERTEX_POINT('',#298) ;
#306=VERTEX_POINT('',#305) ;
#330=VERTEX_POINT('',#329) ;
#337=VERTEX_POINT('',#336) ;
#356=VERTEX_POINT('',#355) ;
#363=VERTEX_POINT('',#362) ;
#387=VERTEX_POINT('',#386) ;
#394=VERTEX_POINT('',#393) ;
#413=VERTEX_POINT('',#412) ;
#420=VERTEX_POINT('',#419) ;
#444=VERTEX_POINT('',#443) ;
#451=VERTEX_POINT('',#450) ;
#470=VERTEX_POINT('',#469) ;
#477=VERTEX_POINT('',#476) ;
#501=VERTEX_POINT('',#500) ;
#508=VERTEX_POINT('',#507) ;
#46=(LENGTH_UNIT()NAMED_UNIT(*)SI_UNIT(.MILLI.,.METRE.)) ;
#47=(NAMED_UNIT(*)PLANE_ANGLE_UNIT()SI_UNIT($,.RADIAN.)) ;
#49=(NAMED_UNIT(*)SI_UNIT($,.STERADIAN.)SOLID_ANGLE_UNIT()) ;
#51=(GEOMETRIC_REPRESENTATION_CONTEXT(3)GLOBAL_UNCERTAINTY_ASSIGNED_CONTEXT((#50))GLOBAL_UNIT_ASSIGNED_CONTEXT((#46,#47,#49))REPRESENTATION_CONTEXT(' ',' ')) ;
#53=(GEOMETRIC_REPRESENTATION_CONTEXT(3)GLOBAL_UNCERTAINTY_ASSIGNED_CONTEXT((#52))GLOBAL_UNIT_ASSIGNED_CONTEXT((#46,#47,#49))REPRESENTATION_CONTEXT(' ',' ')) ;
#598=(REPRESENTATION_RELATIONSHIP(' ',' ',#54,#44)REPRESENTATION_RELATIONSHIP_WITH_TRANSFORMATION(#599)SHAPE_REPRESENTATION_RELATIONSHIP()) ;
ENDSEC;
END-ISO-10303-21;
