ISO-10303-21;
HEADER;
/* Generated by software containing ST-Developer
 * from STEP Tools, Inc. (www.steptools.com) 
 */

FILE_DESCRIPTION(
/* description */ (''),
/* implementation_level */ '2;1');

FILE_NAME(
/* name */ 
'C:\\Users\\Thomas\\Documents\\Inventor\\Projets TSO\\Bab El Raid\\Ent
retoise train AR Boumbo\\Entretoise 30mm.stp',
/* time_stamp */ '2024-02-05T16:01:55+01:00',
/* author */ ('Thomas'),
/* organization */ (''),
/* preprocessor_version */ 'ST-DEVELOPER v16.5',
/* originating_system */ 'Autodesk Inventor 2017',
/* authorisation */ '');

FILE_SCHEMA (('AUTOMOTIVE_DESIGN { 1 0 10303 214 3 1 1 }'));
ENDSEC;

DATA;
#10=MECHANICAL_DESIGN_GEOMETRIC_PRESENTATION_REPRESENTATION('',(#13),#211);
#11=SHAPE_REPRESENTATION_RELATIONSHIP('SRR','None',#220,#12);
#12=ADVANCED_BREP_SHAPE_REPRESENTATION('',(#14),#210);
#13=STYLED_ITEM('',(#229),#14);
#14=MANIFOLD_SOLID_BREP('Solid1',#119);
#15=PLANE('',#139);
#16=PLANE('',#143);
#17=FACE_BOUND('',#38,.T.);
#18=FACE_BOUND('',#40,.T.);
#19=FACE_BOUND('',#42,.T.);
#20=FACE_BOUND('',#44,.T.);
#21=FACE_BOUND('',#46,.T.);
#22=FACE_BOUND('',#47,.T.);
#23=FACE_BOUND('',#48,.T.);
#24=FACE_BOUND('',#49,.T.);
#25=FACE_BOUND('',#51,.T.);
#26=FACE_BOUND('',#53,.T.);
#27=FACE_BOUND('',#54,.T.);
#28=FACE_BOUND('',#55,.T.);
#29=FACE_BOUND('',#56,.T.);
#30=FACE_OUTER_BOUND('',#37,.T.);
#31=FACE_OUTER_BOUND('',#39,.T.);
#32=FACE_OUTER_BOUND('',#41,.T.);
#33=FACE_OUTER_BOUND('',#43,.T.);
#34=FACE_OUTER_BOUND('',#45,.T.);
#35=FACE_OUTER_BOUND('',#50,.T.);
#36=FACE_OUTER_BOUND('',#52,.T.);
#37=EDGE_LOOP('',(#87));
#38=EDGE_LOOP('',(#88));
#39=EDGE_LOOP('',(#89));
#40=EDGE_LOOP('',(#90));
#41=EDGE_LOOP('',(#91));
#42=EDGE_LOOP('',(#92));
#43=EDGE_LOOP('',(#93));
#44=EDGE_LOOP('',(#94));
#45=EDGE_LOOP('',(#95));
#46=EDGE_LOOP('',(#96));
#47=EDGE_LOOP('',(#97));
#48=EDGE_LOOP('',(#98));
#49=EDGE_LOOP('',(#99));
#50=EDGE_LOOP('',(#100));
#51=EDGE_LOOP('',(#101));
#52=EDGE_LOOP('',(#102));
#53=EDGE_LOOP('',(#103));
#54=EDGE_LOOP('',(#104));
#55=EDGE_LOOP('',(#105));
#56=EDGE_LOOP('',(#106));
#57=CIRCLE('',#128,5.25);
#58=CIRCLE('',#129,5.25);
#59=CIRCLE('',#131,5.25);
#60=CIRCLE('',#132,5.25);
#61=CIRCLE('',#134,5.25);
#62=CIRCLE('',#135,5.25);
#63=CIRCLE('',#137,5.25);
#64=CIRCLE('',#138,5.25);
#65=CIRCLE('',#140,47.5);
#66=CIRCLE('',#142,47.5);
#67=VERTEX_POINT('',#182);
#68=VERTEX_POINT('',#184);
#69=VERTEX_POINT('',#187);
#70=VERTEX_POINT('',#189);
#71=VERTEX_POINT('',#192);
#72=VERTEX_POINT('',#194);
#73=VERTEX_POINT('',#197);
#74=VERTEX_POINT('',#199);
#75=VERTEX_POINT('',#202);
#76=VERTEX_POINT('',#205);
#77=EDGE_CURVE('',#67,#67,#57,.T.);
#78=EDGE_CURVE('',#68,#68,#58,.T.);
#79=EDGE_CURVE('',#69,#69,#59,.T.);
#80=EDGE_CURVE('',#70,#70,#60,.T.);
#81=EDGE_CURVE('',#71,#71,#61,.T.);
#82=EDGE_CURVE('',#72,#72,#62,.T.);
#83=EDGE_CURVE('',#73,#73,#63,.T.);
#84=EDGE_CURVE('',#74,#74,#64,.T.);
#85=EDGE_CURVE('',#75,#75,#65,.T.);
#86=EDGE_CURVE('',#76,#76,#66,.T.);
#87=ORIENTED_EDGE('',*,*,#77,.F.);
#88=ORIENTED_EDGE('',*,*,#78,.F.);
#89=ORIENTED_EDGE('',*,*,#79,.F.);
#90=ORIENTED_EDGE('',*,*,#80,.F.);
#91=ORIENTED_EDGE('',*,*,#81,.F.);
#92=ORIENTED_EDGE('',*,*,#82,.F.);
#93=ORIENTED_EDGE('',*,*,#83,.F.);
#94=ORIENTED_EDGE('',*,*,#84,.F.);
#95=ORIENTED_EDGE('',*,*,#85,.T.);
#96=ORIENTED_EDGE('',*,*,#77,.T.);
#97=ORIENTED_EDGE('',*,*,#79,.T.);
#98=ORIENTED_EDGE('',*,*,#81,.T.);
#99=ORIENTED_EDGE('',*,*,#83,.T.);
#100=ORIENTED_EDGE('',*,*,#85,.F.);
#101=ORIENTED_EDGE('',*,*,#86,.F.);
#102=ORIENTED_EDGE('',*,*,#86,.T.);
#103=ORIENTED_EDGE('',*,*,#78,.T.);
#104=ORIENTED_EDGE('',*,*,#80,.T.);
#105=ORIENTED_EDGE('',*,*,#82,.T.);
#106=ORIENTED_EDGE('',*,*,#84,.T.);
#107=CYLINDRICAL_SURFACE('',#127,5.25);
#108=CYLINDRICAL_SURFACE('',#130,5.25);
#109=CYLINDRICAL_SURFACE('',#133,5.25);
#110=CYLINDRICAL_SURFACE('',#136,5.25);
#111=CYLINDRICAL_SURFACE('',#141,47.5);
#112=ADVANCED_FACE('',(#30,#17),#107,.F.);
#113=ADVANCED_FACE('',(#31,#18),#108,.F.);
#114=ADVANCED_FACE('',(#32,#19),#109,.F.);
#115=ADVANCED_FACE('',(#33,#20),#110,.F.);
#116=ADVANCED_FACE('',(#34,#21,#22,#23,#24),#15,.F.);
#117=ADVANCED_FACE('',(#35,#25),#111,.T.);
#118=ADVANCED_FACE('',(#36,#26,#27,#28,#29),#16,.T.);
#119=CLOSED_SHELL('',(#112,#113,#114,#115,#116,#117,#118));
#120=DATE_TIME_ROLE('creation_date');
#121=APPLIED_DATE_AND_TIME_ASSIGNMENT(#122,#120,(#222));
#122=DATE_AND_TIME(#123,#124);
#123=CALENDAR_DATE(2024,5,2);
#124=LOCAL_TIME(13,32,56.,#125);
#125=COORDINATED_UNIVERSAL_TIME_OFFSET(0,0,.BEHIND.);
#126=AXIS2_PLACEMENT_3D('placement',#180,#144,#145);
#127=AXIS2_PLACEMENT_3D('',#181,#146,#147);
#128=AXIS2_PLACEMENT_3D('',#183,#148,#149);
#129=AXIS2_PLACEMENT_3D('',#185,#150,#151);
#130=AXIS2_PLACEMENT_3D('',#186,#152,#153);
#131=AXIS2_PLACEMENT_3D('',#188,#154,#155);
#132=AXIS2_PLACEMENT_3D('',#190,#156,#157);
#133=AXIS2_PLACEMENT_3D('',#191,#158,#159);
#134=AXIS2_PLACEMENT_3D('',#193,#160,#161);
#135=AXIS2_PLACEMENT_3D('',#195,#162,#163);
#136=AXIS2_PLACEMENT_3D('',#196,#164,#165);
#137=AXIS2_PLACEMENT_3D('',#198,#166,#167);
#138=AXIS2_PLACEMENT_3D('',#200,#168,#169);
#139=AXIS2_PLACEMENT_3D('',#201,#170,#171);
#140=AXIS2_PLACEMENT_3D('',#203,#172,#173);
#141=AXIS2_PLACEMENT_3D('',#204,#174,#175);
#142=AXIS2_PLACEMENT_3D('',#206,#176,#177);
#143=AXIS2_PLACEMENT_3D('',#207,#178,#179);
#144=DIRECTION('axis',(0.,0.,1.));
#145=DIRECTION('refdir',(1.,0.,0.));
#146=DIRECTION('center_axis',(0.,1.,0.));
#147=DIRECTION('ref_axis',(1.,0.,0.));
#148=DIRECTION('center_axis',(0.,1.,0.));
#149=DIRECTION('ref_axis',(1.,0.,0.));
#150=DIRECTION('center_axis',(0.,-1.,0.));
#151=DIRECTION('ref_axis',(1.,0.,0.));
#152=DIRECTION('center_axis',(0.,1.,0.));
#153=DIRECTION('ref_axis',(1.,0.,0.));
#154=DIRECTION('center_axis',(0.,1.,0.));
#155=DIRECTION('ref_axis',(1.,0.,0.));
#156=DIRECTION('center_axis',(0.,-1.,0.));
#157=DIRECTION('ref_axis',(1.,0.,0.));
#158=DIRECTION('center_axis',(0.,1.,0.));
#159=DIRECTION('ref_axis',(1.,0.,0.));
#160=DIRECTION('center_axis',(0.,1.,0.));
#161=DIRECTION('ref_axis',(1.,0.,0.));
#162=DIRECTION('center_axis',(0.,-1.,0.));
#163=DIRECTION('ref_axis',(1.,0.,0.));
#164=DIRECTION('center_axis',(0.,1.,0.));
#165=DIRECTION('ref_axis',(1.,0.,0.));
#166=DIRECTION('center_axis',(0.,1.,0.));
#167=DIRECTION('ref_axis',(1.,0.,0.));
#168=DIRECTION('center_axis',(0.,-1.,0.));
#169=DIRECTION('ref_axis',(1.,0.,0.));
#170=DIRECTION('center_axis',(0.,1.,0.));
#171=DIRECTION('ref_axis',(0.,0.,1.));
#172=DIRECTION('center_axis',(0.,-1.,0.));
#173=DIRECTION('ref_axis',(1.,0.,0.));
#174=DIRECTION('center_axis',(0.,1.,0.));
#175=DIRECTION('ref_axis',(1.,0.,0.));
#176=DIRECTION('center_axis',(0.,1.,0.));
#177=DIRECTION('ref_axis',(1.,0.,0.));
#178=DIRECTION('center_axis',(0.,1.,0.));
#179=DIRECTION('ref_axis',(0.,0.,1.));
#180=CARTESIAN_POINT('',(0.,0.,0.));
#181=CARTESIAN_POINT('Origin',(25.,0.,16.));
#182=CARTESIAN_POINT('',(19.75,-15.,16.));
#183=CARTESIAN_POINT('Origin',(25.,-15.,16.));
#184=CARTESIAN_POINT('',(19.75,15.,16.));
#185=CARTESIAN_POINT('Origin',(25.,15.,16.));
#186=CARTESIAN_POINT('Origin',(25.,0.,-16.));
#187=CARTESIAN_POINT('',(19.75,-15.,-16.));
#188=CARTESIAN_POINT('Origin',(25.,-15.,-16.));
#189=CARTESIAN_POINT('',(19.75,15.,-16.));
#190=CARTESIAN_POINT('Origin',(25.,15.,-16.));
#191=CARTESIAN_POINT('Origin',(-25.,0.,-25.));
#192=CARTESIAN_POINT('',(-30.25,-15.,-25.));
#193=CARTESIAN_POINT('Origin',(-25.,-15.,-25.));
#194=CARTESIAN_POINT('',(-30.25,15.,-25.));
#195=CARTESIAN_POINT('Origin',(-25.,15.,-25.));
#196=CARTESIAN_POINT('Origin',(-25.,0.,25.));
#197=CARTESIAN_POINT('',(-30.25,-15.,25.));
#198=CARTESIAN_POINT('Origin',(-25.,-15.,25.));
#199=CARTESIAN_POINT('',(-30.25,15.,25.));
#200=CARTESIAN_POINT('Origin',(-25.,15.,25.));
#201=CARTESIAN_POINT('Origin',(2.97788843083828E-15,-15.,0.));
#202=CARTESIAN_POINT('',(-47.5,-15.,5.81707229594993E-15));
#203=CARTESIAN_POINT('Origin',(0.,-15.,0.));
#204=CARTESIAN_POINT('Origin',(0.,0.,0.));
#205=CARTESIAN_POINT('',(-47.5,15.,5.81707229594993E-15));
#206=CARTESIAN_POINT('Origin',(0.,15.,0.));
#207=CARTESIAN_POINT('Origin',(2.97788843083828E-15,15.,0.));
#208=UNCERTAINTY_MEASURE_WITH_UNIT(LENGTH_MEASURE(0.01),#212,
'DISTANCE_ACCURACY_VALUE',
'Maximum model space distance between geometric entities at asserted c
onnectivities');
#209=UNCERTAINTY_MEASURE_WITH_UNIT(LENGTH_MEASURE(1.E-6),#212,
'DISTANCE_ACCURACY_VALUE',
'Maximum model space distance between geometric entities at asserted c
onnectivities');
#210=(
GEOMETRIC_REPRESENTATION_CONTEXT(3)
GLOBAL_UNCERTAINTY_ASSIGNED_CONTEXT((#208))
GLOBAL_UNIT_ASSIGNED_CONTEXT((#212,#215,#213))
REPRESENTATION_CONTEXT('','3D')
);
#211=(
GEOMETRIC_REPRESENTATION_CONTEXT(3)
GLOBAL_UNCERTAINTY_ASSIGNED_CONTEXT((#209))
GLOBAL_UNIT_ASSIGNED_CONTEXT((#212,#215,#213))
REPRESENTATION_CONTEXT('','3D')
);
#212=(
LENGTH_UNIT()
NAMED_UNIT(*)
SI_UNIT(.MILLI.,.METRE.)
);
#213=(
NAMED_UNIT(*)
SI_UNIT($,.STERADIAN.)
SOLID_ANGLE_UNIT()
);
#214=DIMENSIONAL_EXPONENTS(0.,0.,0.,0.,0.,0.,0.);
#215=(
CONVERSION_BASED_UNIT('degree',#217)
NAMED_UNIT(#214)
PLANE_ANGLE_UNIT()
);
#216=(
NAMED_UNIT(*)
PLANE_ANGLE_UNIT()
SI_UNIT($,.RADIAN.)
);
#217=PLANE_ANGLE_MEASURE_WITH_UNIT(PLANE_ANGLE_MEASURE(0.01745329252),#216);
#218=SHAPE_DEFINITION_REPRESENTATION(#219,#220);
#219=PRODUCT_DEFINITION_SHAPE('',$,#222);
#220=SHAPE_REPRESENTATION('',(#126),#210);
#221=PRODUCT_DEFINITION_CONTEXT('part definition',#226,'design');
#222=PRODUCT_DEFINITION('Entretoise 30mm','Entretoise 30mm',#223,#221);
#223=PRODUCT_DEFINITION_FORMATION('',$,#228);
#224=PRODUCT_RELATED_PRODUCT_CATEGORY('Entretoise 30mm',
'Entretoise 30mm',(#228));
#225=APPLICATION_PROTOCOL_DEFINITION('international standard',
'automotive_design',2009,#226);
#226=APPLICATION_CONTEXT(
'Core Data for Automotive Mechanical Design Process');
#227=PRODUCT_CONTEXT('part definition',#226,'mechanical');
#228=PRODUCT('Entretoise 30mm','Entretoise 30mm',$,(#227));
#229=PRESENTATION_STYLE_ASSIGNMENT((#230));
#230=SURFACE_STYLE_USAGE(.BOTH.,#231);
#231=SURFACE_SIDE_STYLE('',(#232));
#232=SURFACE_STYLE_FILL_AREA(#233);
#233=FILL_AREA_STYLE('',(#234));
#234=FILL_AREA_STYLE_COLOUR('',#235);
#235=COLOUR_RGB('',0.301960784313725,0.305882352941176,0.290196078431373);
ENDSEC;
END-ISO-10303-21;
