ISO-10303-21;
HEADER;
FILE_DESCRIPTION (( 'STEP AP203' ),
    '1' );
FILE_NAME ('siege soupape-23.STEP',
    '2024-12-17T20:32:29',
    ( '' ),
    ( '' ),
    'SwSTEP 2.0',
    'SolidWorks 2023',
    '' );
FILE_SCHEMA (( 'CONFIG_CONTROL_DESIGN' ));
ENDSEC;

DATA;
#1 = ADVANCED_FACE ( 'NONE', ( #218 ), #14, .F. ) ;
#2 = DIRECTION ( 'NONE',  ( -0.000000000000000000, -1.000000000000000000, -0.000000000000000000 ) ) ;
#3 = PERSON_AND_ORGANIZATION ( #41, #295 ) ;
#4 = AXIS2_PLACEMENT_3D ( 'NONE', #324, #79, #31 ) ;
#5 = CARTESIAN_POINT ( 'NONE',  ( 1.469576158976823947E-15, 4.900000000000002132, 12.00000000000000000 ) ) ;
#6 = ORIENTED_EDGE ( 'NONE', *, *, #57, .T. ) ;
#7 =( NAMED_UNIT ( * ) PLANE_ANGLE_UNIT ( ) SI_UNIT ( $, .RADIAN. ) );
#8 = ORIENTED_EDGE ( 'NONE', *, *, #199, .F. ) ;
#9 = CONICAL_SURFACE ( 'NONE', #171, 9.000000000000001776, 0.7853981633974466137 ) ;
#10 = EDGE_CURVE ( 'NONE', #252, #54, #202, .T. ) ;
#11 = EDGE_LOOP ( 'NONE', ( #112, #254, #12, #8 ) ) ;
#12 = ORIENTED_EDGE ( 'NONE', *, *, #10, .T. ) ;
#13 = ORIENTED_EDGE ( 'NONE', *, *, #169, .T. ) ;
#14 = CYLINDRICAL_SURFACE ( 'NONE', #70, 9.000000000000001776 ) ;
#15 = APPLICATION_CONTEXT ( 'configuration controlled 3d designs of mechanical parts and assemblies' ) ;
#16 = AXIS2_PLACEMENT_3D ( 'NONE', #50, #200, #311 ) ;
#17 = DIRECTION ( 'NONE',  ( -0.000000000000000000, -1.000000000000000000, -0.000000000000000000 ) ) ;
#18 = PLANE ( 'NONE',  #33 ) ;
#19 = DIRECTION ( 'NONE',  ( 0.000000000000000000, 0.000000000000000000, -1.000000000000000000 ) ) ;
#20 = CALENDAR_DATE ( 2024, 17, 12 ) ;
#21 = LOCAL_TIME ( 21, 32, 29.00000000000000000, #348 ) ;
#22 = CARTESIAN_POINT ( 'NONE',  ( 0.000000000000000000, 2.500000000000007550, 0.000000000000000000 ) ) ;
#23 = CIRCLE ( 'NONE', #113, 11.89999999999999858 ) ;
#24 = APPROVAL_DATE_TIME ( #127, #242 ) ;
#25 = DIRECTION ( 'NONE',  ( 0.000000000000000000, 0.000000000000000000, -1.000000000000000000 ) ) ;
#26 = CARTESIAN_POINT ( 'NONE',  ( 0.000000000000000000, 4.900000000000002132, 0.000000000000000000 ) ) ;
#27 = CARTESIAN_POINT ( 'NONE',  ( 1.102182119232617911E-15, 2.500000000000007550, 9.000000000000001776 ) ) ;
#28 = CC_DESIGN_DATE_AND_TIME_ASSIGNMENT ( #342, #179, ( #283 ) ) ;
#29 = EDGE_LOOP ( 'NONE', ( #170, #38, #306, #115 ) ) ;
#30 = FACE_OUTER_BOUND ( 'NONE', #271, .T. ) ;
#31 = DIRECTION ( 'NONE',  ( 0.000000000000000000, 0.000000000000000000, -1.000000000000000000 ) ) ;
#32 = EDGE_CURVE ( 'NONE', #80, #111, #48, .T. ) ;
#33 = AXIS2_PLACEMENT_3D ( 'NONE', #176, #151, #204 ) ;
#34 = ORIENTED_EDGE ( 'NONE', *, *, #340, .F. ) ;
#35 = DIRECTION ( 'NONE',  ( 0.000000000000000000, 0.000000000000000000, -1.000000000000000000 ) ) ;
#36 = ORIENTED_EDGE ( 'NONE', *, *, #297, .T. ) ;
#37 = EDGE_CURVE ( 'NONE', #307, #243, #84, .T. ) ;
#38 = ORIENTED_EDGE ( 'NONE', *, *, #173, .F. ) ;
#39 = ORIENTED_EDGE ( 'NONE', *, *, #239, .F. ) ;
#40 = CARTESIAN_POINT ( 'NONE',  ( 0.000000000000000000, 2.500000000000007550, -9.000000000000001776 ) ) ;
#41 = PERSON ( 'UNSPECIFIED', 'UNSPECIFIED', 'UNSPECIFIED', ('UNSPECIFIED'), ('UNSPECIFIED'), ('UNSPECIFIED') ) ;
#42 = CARTESIAN_POINT ( 'NONE',  ( 0.000000000000000000, 0.000000000000000000, -12.00000000000000000 ) ) ;
#43 = DATE_AND_TIME ( #20, #21 ) ;
#44 = CARTESIAN_POINT ( 'NONE',  ( 1.469576158976823947E-15, 0.000000000000000000, 12.00000000000000000 ) ) ;
#45 = APPROVAL_ROLE ( '' ) ;
#46 = APPROVAL_PERSON_ORGANIZATION ( #230, #242, #45 ) ;
#47 = DIRECTION ( 'NONE',  ( -0.000000000000000000, -1.000000000000000000, -0.000000000000000000 ) ) ;
#48 = CIRCLE ( 'NONE', #301, 12.00000000000000000 ) ;
#49 = CC_DESIGN_SECURITY_CLASSIFICATION ( #195, ( #83 ) ) ;
#50 = CARTESIAN_POINT ( 'NONE',  ( 0.000000000000000000, 0.000000000000000000, 0.000000000000000000 ) ) ;
#51 = CYLINDRICAL_SURFACE ( 'NONE', #289, 9.000000000000001776 ) ;
#52 = ORIENTED_EDGE ( 'NONE', *, *, #331, .F. ) ;
#53 = DIRECTION ( 'NONE',  ( 0.000000000000000000, 1.000000000000000000, 0.000000000000000000 ) ) ;
#54 = VERTEX_POINT ( 'NONE', #334 ) ;
#55 = AXIS2_PLACEMENT_3D ( 'NONE', #247, #273, #304 ) ;
#56 = CARTESIAN_POINT ( 'NONE',  ( 1.469576158976823947E-15, 4.900000000000002132, 12.00000000000000000 ) ) ;
#57 = EDGE_CURVE ( 'NONE', #275, #335, #234, .T. ) ;
#58 = CARTESIAN_POINT ( 'NONE',  ( 0.000000000000000000, 0.000000000000000000, 0.000000000000000000 ) ) ;
#59 = EDGE_CURVE ( 'NONE', #216, #192, #23, .T. ) ;
#60 = VECTOR ( 'NONE', #277, 1000.000000000000000 ) ;
#61 = ORIENTED_EDGE ( 'NONE', *, *, #239, .T. ) ;
#62 = ADVANCED_BREP_SHAPE_REPRESENTATION ( 'siege soupape-23', ( #263, #182 ), #117 ) ;
#63 = ORIENTED_EDGE ( 'NONE', *, *, #57, .F. ) ;
#64 = ORIENTED_EDGE ( 'NONE', *, *, #37, .T. ) ;
#65 = LOCAL_TIME ( 21, 32, 29.00000000000000000, #76 ) ;
#66 = CONICAL_SURFACE ( 'NONE', #196, 12.00000000000000000, 0.7853981633974657095 ) ;
#67 = ORIENTED_EDGE ( 'NONE', *, *, #122, .T. ) ;
#68 = ORIENTED_EDGE ( 'NONE', *, *, #214, .T. ) ;
#69 = CARTESIAN_POINT ( 'NONE',  ( 0.000000000000000000, 0.000000000000000000, -9.000000000000001776 ) ) ;
#70 = AXIS2_PLACEMENT_3D ( 'NONE', #167, #172, #330 ) ;
#71 = DIRECTION ( 'NONE',  ( -0.000000000000000000, -1.000000000000000000, -0.000000000000000000 ) ) ;
#72 = PERSON_AND_ORGANIZATION ( #41, #295 ) ;
#73 = DIRECTION ( 'NONE',  ( 0.000000000000000000, 1.000000000000000000, 0.000000000000000000 ) ) ;
#74 = CC_DESIGN_PERSON_AND_ORGANIZATION_ASSIGNMENT ( #3, #123, ( #83 ) ) ;
#75 = FACE_OUTER_BOUND ( 'NONE', #223, .T. ) ;
#76 = COORDINATED_UNIVERSAL_TIME_OFFSET ( 1, 0, .AHEAD. ) ;
#77 = DIRECTION ( 'NONE',  ( 0.000000000000000000, 0.000000000000000000, -1.000000000000000000 ) ) ;
#78 = CONICAL_SURFACE ( 'NONE', #268, 12.00000000000000000, 0.7853981633974657095 ) ;
#79 = DIRECTION ( 'NONE',  ( -0.000000000000000000, -1.000000000000000000, -0.000000000000000000 ) ) ;
#80 = VERTEX_POINT ( 'NONE', #126 ) ;
#81 = EDGE_CURVE ( 'NONE', #307, #252, #317, .T. ) ;
#82 =( NAMED_UNIT ( * ) SI_UNIT ( $, .STERADIAN. ) SOLID_ANGLE_UNIT ( ) );
#83 = PRODUCT_DEFINITION_FORMATION_WITH_SPECIFIED_SOURCE ( 'ANY', '', #349, .NOT_KNOWN. ) ;
#84 = CIRCLE ( 'NONE', #92, 9.000000000000000000 ) ;
#85 = CARTESIAN_POINT ( 'NONE',  ( 0.000000000000000000, 0.000000000000000000, 0.000000000000000000 ) ) ;
#86 = ORIENTED_EDGE ( 'NONE', *, *, #157, .T. ) ;
#87 = AXIS2_PLACEMENT_3D ( 'NONE', #320, #2, #135 ) ;
#88 = ORIENTED_EDGE ( 'NONE', *, *, #299, .F. ) ;
#89 = CC_DESIGN_DATE_AND_TIME_ASSIGNMENT ( #43, #105, ( #195 ) ) ;
#90 = ORIENTED_EDGE ( 'NONE', *, *, #299, .T. ) ;
#91 = ORIENTED_EDGE ( 'NONE', *, *, #173, .T. ) ;
#92 = AXIS2_PLACEMENT_3D ( 'NONE', #141, #145, #249 ) ;
#93 = DIRECTION ( 'NONE',  ( -0.000000000000000000, -1.000000000000000000, -0.000000000000000000 ) ) ;
#94 = DIRECTION ( 'NONE',  ( 0.000000000000000000, 0.000000000000000000, -1.000000000000000000 ) ) ;
#95 = DIRECTION ( 'NONE',  ( 1.000000000000000000, 0.000000000000000000, 0.000000000000000000 ) ) ;
#96 = DIRECTION ( 'NONE',  ( 0.000000000000000000, 0.000000000000000000, -1.000000000000000000 ) ) ;
#97 = AXIS2_PLACEMENT_3D ( 'NONE', #124, #17, #120 ) ;
#98 = CARTESIAN_POINT ( 'NONE',  ( 0.000000000000000000, 0.000000000000000000, 0.000000000000000000 ) ) ;
#99 = PERSON_AND_ORGANIZATION_ROLE ( 'design_supplier' ) ;
#100 = FACE_OUTER_BOUND ( 'NONE', #270, .T. ) ;
#101 = DATE_AND_TIME ( #345, #203 ) ;
#102 = DIRECTION ( 'NONE',  ( -0.000000000000000000, -1.000000000000000000, -0.000000000000000000 ) ) ;
#103 = SHAPE_DEFINITION_REPRESENTATION ( #291, #62 ) ;
#104 = DIRECTION ( 'NONE',  ( 8.659560562354918067E-17, -0.7071067811865487940, 0.7071067811865463515 ) ) ;
#105 = DATE_TIME_ROLE ( 'classification_date' ) ;
#106 = CARTESIAN_POINT ( 'NONE',  ( 1.469576158976823947E-15, 0.000000000000000000, 12.00000000000000000 ) ) ;
#107 = ORIENTED_EDGE ( 'NONE', *, *, #59, .F. ) ;
#108 = DIRECTION ( 'NONE',  ( 0.000000000000000000, -0.000000000000000000, 1.000000000000000000 ) ) ;
#109 = LOCAL_TIME ( 21, 32, 29.00000000000000000, #154 ) ;
#110 = EDGE_LOOP ( 'NONE', ( #91, #64 ) ) ;
#111 = VERTEX_POINT ( 'NONE', #44 ) ;
#112 = ORIENTED_EDGE ( 'NONE', *, *, #37, .F. ) ;
#113 = AXIS2_PLACEMENT_3D ( 'NONE', #260, #128, #208 ) ;
#114 = ORIENTED_EDGE ( 'NONE', *, *, #59, .T. ) ;
#115 = ORIENTED_EDGE ( 'NONE', *, *, #185, .T. ) ;
#116 = ORIENTED_EDGE ( 'NONE', *, *, #213, .T. ) ;
#117 =( GEOMETRIC_REPRESENTATION_CONTEXT ( 3 ) GLOBAL_UNCERTAINTY_ASSIGNED_CONTEXT ( ( #282 ) ) GLOBAL_UNIT_ASSIGNED_CONTEXT ( ( #132, #7, #82 ) ) REPRESENTATION_CONTEXT ( 'NONE', 'WORKASPACE' ) );
#118 = VECTOR ( 'NONE', #256, 1000.000000000000000 ) ;
#119 = ADVANCED_FACE ( 'NONE', ( #75 ), #9, .F. ) ;
#120 = DIRECTION ( 'NONE',  ( 0.000000000000000000, 0.000000000000000000, -1.000000000000000000 ) ) ;
#121 = FACE_OUTER_BOUND ( 'NONE', #190, .T. ) ;
#122 = EDGE_CURVE ( 'NONE', #192, #335, #235, .T. ) ;
#123 = PERSON_AND_ORGANIZATION_ROLE ( 'creator' ) ;
#124 = CARTESIAN_POINT ( 'NONE',  ( 0.000000000000000000, 5.000000000000000000, 0.000000000000000000 ) ) ;
#125 = DATE_AND_TIME ( #322, #318 ) ;
#126 = CARTESIAN_POINT ( 'NONE',  ( 0.000000000000000000, 0.000000000000000000, -12.00000000000000000 ) ) ;
#127 = DATE_AND_TIME ( #261, #109 ) ;
#128 = DIRECTION ( 'NONE',  ( 0.000000000000000000, 1.000000000000000000, 0.000000000000000000 ) ) ;
#129 = PRODUCT_RELATED_PRODUCT_CATEGORY ( 'detail', '', ( #349 ) ) ;
#130 = DIRECTION ( 'NONE',  ( -0.000000000000000000, -1.000000000000000000, -0.000000000000000000 ) ) ;
#131 = APPROVAL_ROLE ( '' ) ;
#132 =( LENGTH_UNIT ( ) NAMED_UNIT ( * ) SI_UNIT ( .MILLI., .METRE. ) );
#133 = ORIENTED_EDGE ( 'NONE', *, *, #213, .F. ) ;
#134 = CYLINDRICAL_SURFACE ( 'NONE', #332, 12.00000000000000000 ) ;
#135 = DIRECTION ( 'NONE',  ( 0.000000000000000000, 0.000000000000000000, -1.000000000000000000 ) ) ;
#136 = DIRECTION ( 'NONE',  ( 0.000000000000000000, 0.000000000000000000, -1.000000000000000000 ) ) ;
#137 = AXIS2_PLACEMENT_3D ( 'NONE', #153, #227, #94 ) ;
#138 = DESIGN_CONTEXT ( 'detailed design', #15, 'design' ) ;
#139 = APPROVAL ( #281, 'UNSPECIFIED' ) ;
#140 = LINE ( 'NONE', #106, #191 ) ;
#141 = CARTESIAN_POINT ( 'NONE',  ( 0.000000000000000000, 5.000000000000000000, 0.000000000000000000 ) ) ;
#142 = CIRCLE ( 'NONE', #226, 11.89999999999999858 ) ;
#143 = CC_DESIGN_APPROVAL ( #250, ( #195 ) ) ;
#144 = VERTEX_POINT ( 'NONE', #339 ) ;
#145 = DIRECTION ( 'NONE',  ( -0.000000000000000000, -1.000000000000000000, -0.000000000000000000 ) ) ;
#146 = ORIENTED_EDGE ( 'NONE', *, *, #32, .T. ) ;
#147 = CONICAL_SURFACE ( 'NONE', #4, 9.000000000000001776, 0.7853981633974466137 ) ;
#148 = ADVANCED_FACE ( 'NONE', ( #346 ), #66, .T. ) ;
#149 = FACE_OUTER_BOUND ( 'NONE', #194, .T. ) ;
#150 = ADVANCED_FACE ( 'NONE', ( #100 ), #206, .T. ) ;
#151 = DIRECTION ( 'NONE',  ( 0.000000000000000000, -1.000000000000000000, -0.000000000000000000 ) ) ;
#152 = COORDINATED_UNIVERSAL_TIME_OFFSET ( 1, 0, .AHEAD. ) ;
#153 = CARTESIAN_POINT ( 'NONE',  ( 0.000000000000000000, 2.500000000000007550, 0.000000000000000000 ) ) ;
#154 = COORDINATED_UNIVERSAL_TIME_OFFSET ( 1, 0, .AHEAD. ) ;
#155 = VECTOR ( 'NONE', #160, 1000.000000000000000 ) ;
#156 = CARTESIAN_POINT ( 'NONE',  ( 0.000000000000000000, 5.000000000000000000, -9.000000000000000000 ) ) ;
#157 = EDGE_CURVE ( 'NONE', #111, #80, #344, .T. ) ;
#158 = CARTESIAN_POINT ( 'NONE',  ( 0.000000000000000000, 4.900000000000002132, -12.00000000000000000 ) ) ;
#159 = PERSON_AND_ORGANIZATION_ROLE ( 'creator' ) ;
#160 = DIRECTION ( 'NONE',  ( 8.659560562355083235E-17, -0.7071067811865352493, 0.7071067811865597852 ) ) ;
#161 = DIRECTION ( 'NONE',  ( -0.000000000000000000, -1.000000000000000000, -0.000000000000000000 ) ) ;
#162 = CIRCLE ( 'NONE', #16, 11.50000000000000000 ) ;
#163 = AXIS2_PLACEMENT_3D ( 'NONE', #347, #102, #77 ) ;
#164 = EDGE_LOOP ( 'NONE', ( #61, #114 ) ) ;
#165 = FACE_OUTER_BOUND ( 'NONE', #164, .T. ) ;
#166 = AXIS2_PLACEMENT_3D ( 'NONE', #26, #161, #298 ) ;
#167 = CARTESIAN_POINT ( 'NONE',  ( 0.000000000000000000, 0.000000000000000000, 0.000000000000000000 ) ) ;
#168 = ORIENTED_EDGE ( 'NONE', *, *, #214, .F. ) ;
#169 = EDGE_CURVE ( 'NONE', #144, #333, #162, .T. ) ;
#170 = ORIENTED_EDGE ( 'NONE', *, *, #81, .F. ) ;
#171 = AXIS2_PLACEMENT_3D ( 'NONE', #22, #236, #96 ) ;
#172 = DIRECTION ( 'NONE',  ( -0.000000000000000000, -1.000000000000000000, -0.000000000000000000 ) ) ;
#173 = EDGE_CURVE ( 'NONE', #243, #307, #248, .T. ) ;
#174 = ORIENTED_EDGE ( 'NONE', *, *, #340, .T. ) ;
#175 = LINE ( 'NONE', #42, #60 ) ;
#176 = CARTESIAN_POINT ( 'NONE',  ( 11.50000000000000000, 0.000000000000000000, 0.000000000000000000 ) ) ;
#177 = PERSON_AND_ORGANIZATION ( #41, #295 ) ;
#178 = DIRECTION ( 'NONE',  ( -0.000000000000000000, -1.000000000000000000, -0.000000000000000000 ) ) ;
#179 = DATE_TIME_ROLE ( 'creation_date' ) ;
#180 = DIRECTION ( 'NONE',  ( 0.000000000000000000, 0.000000000000000000, 1.000000000000000000 ) ) ;
#181 = PERSON_AND_ORGANIZATION ( #41, #295 ) ;
#182 = AXIS2_PLACEMENT_3D ( 'NONE', #188, #228, #95 ) ;
#183 = DIRECTION ( 'NONE',  ( 0.000000000000000000, 0.000000000000000000, -1.000000000000000000 ) ) ;
#184 = DIRECTION ( 'NONE',  ( -0.000000000000000000, -1.000000000000000000, -0.000000000000000000 ) ) ;
#185 = EDGE_CURVE ( 'NONE', #54, #252, #294, .T. ) ;
#186 = VECTOR ( 'NONE', #343, 1000.000000000000000 ) ;
#187 = EDGE_LOOP ( 'NONE', ( #107, #174, #302, #193 ) ) ;
#188 = CARTESIAN_POINT ( 'NONE',  ( 0.000000000000000000, 0.000000000000000000, 0.000000000000000000 ) ) ;
#189 = FACE_OUTER_BOUND ( 'NONE', #222, .T. ) ;
#190 = EDGE_LOOP ( 'NONE', ( #34, #39, #67, #63 ) ) ;
#191 = VECTOR ( 'NONE', #130, 1000.000000000000000 ) ;
#192 = VERTEX_POINT ( 'NONE', #198 ) ;
#193 = ORIENTED_EDGE ( 'NONE', *, *, #122, .F. ) ;
#194 = EDGE_LOOP ( 'NONE', ( #146, #86 ) ) ;
#195 = SECURITY_CLASSIFICATION ( '', '', #205 ) ;
#196 = AXIS2_PLACEMENT_3D ( 'NONE', #286, #71, #19 ) ;
#197 = ORIENTED_EDGE ( 'NONE', *, *, #185, .F. ) ;
#198 = CARTESIAN_POINT ( 'NONE',  ( 0.000000000000000000, 5.000000000000000000, -11.89999999999999858 ) ) ;
#199 = EDGE_CURVE ( 'NONE', #243, #54, #308, .T. ) ;
#200 = DIRECTION ( 'NONE',  ( -0.000000000000000000, -1.000000000000000000, -0.000000000000000000 ) ) ;
#201 = PERSON_AND_ORGANIZATION ( #41, #295 ) ;
#202 = CIRCLE ( 'NONE', #55, 9.000000000000001776 ) ;
#203 = LOCAL_TIME ( 21, 32, 29.00000000000000000, #237 ) ;
#204 = DIRECTION ( 'NONE',  ( 0.000000000000000000, 0.000000000000000000, -1.000000000000000000 ) ) ;
#205 = SECURITY_CLASSIFICATION_LEVEL ( 'unclassified' ) ;
#206 = CYLINDRICAL_SURFACE ( 'NONE', #163, 12.00000000000000000 ) ;
#207 = CC_DESIGN_PERSON_AND_ORGANIZATION_ASSIGNMENT ( #72, #99, ( #83 ) ) ;
#208 = DIRECTION ( 'NONE',  ( 0.000000000000000000, 0.000000000000000000, 1.000000000000000000 ) ) ;
#209 = APPROVAL_PERSON_ORGANIZATION ( #181, #139, #131 ) ;
#210 = VECTOR ( 'NONE', #280, 1000.000000000000000 ) ;
#211 = CARTESIAN_POINT ( 'NONE',  ( 0.000000000000000000, 4.900000000000002132, -12.00000000000000000 ) ) ;
#212 = APPLICATION_PROTOCOL_DEFINITION ( 'international standard', 'config_control_design', 1994, #15 ) ;
#213 = EDGE_CURVE ( 'NONE', #335, #80, #175, .T. ) ;
#214 = EDGE_CURVE ( 'NONE', #54, #333, #316, .T. ) ;
#215 = DIRECTION ( 'NONE',  ( -0.000000000000000000, -1.000000000000000000, -0.000000000000000000 ) ) ;
#216 = VERTEX_POINT ( 'NONE', #284 ) ;
#217 = FACE_BOUND ( 'NONE', #110, .T. ) ;
#218 = FACE_OUTER_BOUND ( 'NONE', #29, .T. ) ;
#219 = EDGE_LOOP ( 'NONE', ( #224, #328 ) ) ;
#220 = AXIS2_PLACEMENT_3D ( 'NONE', #305, #341, #229 ) ;
#221 = ADVANCED_FACE ( 'NONE', ( #149, #231 ), #18, .T. ) ;
#222 = EDGE_LOOP ( 'NONE', ( #88, #6, #116, #267 ) ) ;
#223 = EDGE_LOOP ( 'NONE', ( #323, #253, #13, #168 ) ) ;
#224 = ORIENTED_EDGE ( 'NONE', *, *, #279, .F. ) ;
#225 = VECTOR ( 'NONE', #104, 1000.000000000000000 ) ;
#226 = AXIS2_PLACEMENT_3D ( 'NONE', #315, #73, #180 ) ;
#227 = DIRECTION ( 'NONE',  ( -0.000000000000000000, -1.000000000000000000, -0.000000000000000000 ) ) ;
#228 = DIRECTION ( 'NONE',  ( 0.000000000000000000, 0.000000000000000000, 1.000000000000000000 ) ) ;
#229 = DIRECTION ( 'NONE',  ( 0.000000000000000000, 0.000000000000000000, 1.000000000000000000 ) ) ;
#230 = PERSON_AND_ORGANIZATION ( #41, #295 ) ;
#231 = FACE_BOUND ( 'NONE', #219, .T. ) ;
#232 = CC_DESIGN_APPROVAL ( #242, ( #283 ) ) ;
#233 = APPROVAL_DATE_TIME ( #125, #250 ) ;
#234 = CIRCLE ( 'NONE', #220, 12.00000000000000000 ) ;
#235 = LINE ( 'NONE', #158, #186 ) ;
#236 = DIRECTION ( 'NONE',  ( -0.000000000000000000, -1.000000000000000000, -0.000000000000000000 ) ) ;
#237 = COORDINATED_UNIVERSAL_TIME_OFFSET ( 1, 0, .AHEAD. ) ;
#238 = CARTESIAN_POINT ( 'NONE',  ( 1.102182119232617911E-15, 2.500000000000007550, 9.000000000000001776 ) ) ;
#239 = EDGE_CURVE ( 'NONE', #192, #216, #142, .T. ) ;
#240 = CALENDAR_DATE ( 2024, 17, 12 ) ;
#241 = CIRCLE ( 'NONE', #166, 12.00000000000000000 ) ;
#242 = APPROVAL ( #313, 'UNSPECIFIED' ) ;
#243 = VERTEX_POINT ( 'NONE', #156 ) ;
#244 = ORIENTED_EDGE ( 'NONE', *, *, #279, .T. ) ;
#245 = CARTESIAN_POINT ( 'NONE',  ( 1.102182119232617714E-15, 5.000000000000000000, 9.000000000000000000 ) ) ;
#246 = ADVANCED_FACE ( 'NONE', ( #121 ), #78, .T. ) ;
#247 = CARTESIAN_POINT ( 'NONE',  ( 0.000000000000000000, 2.500000000000007550, 0.000000000000000000 ) ) ;
#248 = CIRCLE ( 'NONE', #97, 9.000000000000000000 ) ;
#249 = DIRECTION ( 'NONE',  ( 0.000000000000000000, 0.000000000000000000, -1.000000000000000000 ) ) ;
#250 = APPROVAL ( #259, 'UNSPECIFIED' ) ;
#251 = MECHANICAL_CONTEXT ( 'NONE', #321, 'mechanical' ) ;
#252 = VERTEX_POINT ( 'NONE', #27 ) ;
#253 = ORIENTED_EDGE ( 'NONE', *, *, #331, .T. ) ;
#254 = ORIENTED_EDGE ( 'NONE', *, *, #81, .T. ) ;
#255 = AXIS2_PLACEMENT_3D ( 'NONE', #329, #53, #108 ) ;
#256 = DIRECTION ( 'NONE',  ( 0.000000000000000000, -0.7071067811865487940, -0.7071067811865463515 ) ) ;
#257 = PERSON_AND_ORGANIZATION_ROLE ( 'design_owner' ) ;
#258 = DIRECTION ( 'NONE',  ( -0.000000000000000000, -1.000000000000000000, -0.000000000000000000 ) ) ;
#259 = APPROVAL_STATUS ( 'not_yet_approved' ) ;
#260 = CARTESIAN_POINT ( 'NONE',  ( 0.000000000000000000, 5.000000000000000000, 0.000000000000000000 ) ) ;
#261 = CALENDAR_DATE ( 2024, 17, 12 ) ;
#262 = CARTESIAN_POINT ( 'NONE',  ( 0.000000000000000000, 4.900000000000002132, 0.000000000000000000 ) ) ;
#263 = MANIFOLD_SOLID_BREP ( 'Chanfrein1', #325 ) ;
#264 = DIRECTION ( 'NONE',  ( 0.000000000000000000, 0.000000000000000000, -1.000000000000000000 ) ) ;
#265 = APPROVAL_ROLE ( '' ) ;
#266 = PLANE ( 'NONE',  #255 ) ;
#267 = ORIENTED_EDGE ( 'NONE', *, *, #157, .F. ) ;
#268 = AXIS2_PLACEMENT_3D ( 'NONE', #262, #178, #25 ) ;
#269 = ADVANCED_FACE ( 'NONE', ( #165, #217 ), #266, .T. ) ;
#270 = EDGE_LOOP ( 'NONE', ( #36, #90, #272, #133 ) ) ;
#271 = EDGE_LOOP ( 'NONE', ( #52, #197, #68, #244 ) ) ;
#272 = ORIENTED_EDGE ( 'NONE', *, *, #32, .F. ) ;
#273 = DIRECTION ( 'NONE',  ( -0.000000000000000000, -1.000000000000000000, -0.000000000000000000 ) ) ;
#274 = ADVANCED_FACE ( 'NONE', ( #30 ), #147, .F. ) ;
#275 = VERTEX_POINT ( 'NONE', #5 ) ;
#276 = CC_DESIGN_PERSON_AND_ORGANIZATION_ASSIGNMENT ( #201, #159, ( #283 ) ) ;
#277 = DIRECTION ( 'NONE',  ( -0.000000000000000000, -1.000000000000000000, -0.000000000000000000 ) ) ;
#278 = APPLICATION_PROTOCOL_DEFINITION ( 'international standard', 'config_control_design', 1994, #321 ) ;
#279 = EDGE_CURVE ( 'NONE', #333, #144, #319, .T. ) ;
#280 = DIRECTION ( 'NONE',  ( -0.000000000000000000, -1.000000000000000000, -0.000000000000000000 ) ) ;
#281 = APPROVAL_STATUS ( 'not_yet_approved' ) ;
#282 = UNCERTAINTY_MEASURE_WITH_UNIT (LENGTH_MEASURE( 1.000000000000000082E-05 ), #132, 'distance_accuracy_value', 'NONE');
#283 = PRODUCT_DEFINITION ( 'UNKNOWN', '', #83, #138 ) ;
#284 = CARTESIAN_POINT ( 'NONE',  ( 1.463452924981087071E-15, 5.000000000000000000, 11.89999999999999858 ) ) ;
#285 = PERSON_AND_ORGANIZATION ( #41, #295 ) ;
#286 = CARTESIAN_POINT ( 'NONE',  ( 0.000000000000000000, 4.900000000000002132, 0.000000000000000000 ) ) ;
#287 = APPROVAL_PERSON_ORGANIZATION ( #285, #250, #265 ) ;
#288 = APPROVAL_DATE_TIME ( #101, #139 ) ;
#289 = AXIS2_PLACEMENT_3D ( 'NONE', #58, #184, #264 ) ;
#290 = CARTESIAN_POINT ( 'NONE',  ( 1.102182119232617911E-15, 0.000000000000000000, 9.000000000000001776 ) ) ;
#291 = PRODUCT_DEFINITION_SHAPE ( 'NONE', 'NONE',  #283 ) ;
#292 = LINE ( 'NONE', #56, #155 ) ;
#293 = PERSON_AND_ORGANIZATION_ROLE ( 'classification_officer' ) ;
#294 = CIRCLE ( 'NONE', #137, 9.000000000000001776 ) ;
#295 = ORGANIZATION ( 'UNSPECIFIED', 'UNSPECIFIED', '' ) ;
#296 = LINE ( 'NONE', #238, #225 ) ;
#297 = EDGE_CURVE ( 'NONE', #335, #275, #241, .T. ) ;
#298 = DIRECTION ( 'NONE',  ( 0.000000000000000000, 0.000000000000000000, 1.000000000000000000 ) ) ;
#299 = EDGE_CURVE ( 'NONE', #275, #111, #140, .T. ) ;
#300 = FACE_OUTER_BOUND ( 'NONE', #11, .T. ) ;
#301 = AXIS2_PLACEMENT_3D ( 'NONE', #338, #93, #35 ) ;
#302 = ORIENTED_EDGE ( 'NONE', *, *, #297, .F. ) ;
#303 = CC_DESIGN_PERSON_AND_ORGANIZATION_ASSIGNMENT ( #177, #293, ( #195 ) ) ;
#304 = DIRECTION ( 'NONE',  ( 0.000000000000000000, 0.000000000000000000, -1.000000000000000000 ) ) ;
#305 = CARTESIAN_POINT ( 'NONE',  ( 0.000000000000000000, 4.900000000000002132, 0.000000000000000000 ) ) ;
#306 = ORIENTED_EDGE ( 'NONE', *, *, #199, .T. ) ;
#307 = VERTEX_POINT ( 'NONE', #245 ) ;
#308 = LINE ( 'NONE', #69, #210 ) ;
#309 = PERSON_AND_ORGANIZATION ( #41, #295 ) ;
#310 = ADVANCED_FACE ( 'NONE', ( #189 ), #134, .T. ) ;
#311 = DIRECTION ( 'NONE',  ( 0.000000000000000000, 0.000000000000000000, -1.000000000000000000 ) ) ;
#312 = AXIS2_PLACEMENT_3D ( 'NONE', #98, #47, #183 ) ;
#313 = APPROVAL_STATUS ( 'not_yet_approved' ) ;
#314 = CC_DESIGN_PERSON_AND_ORGANIZATION_ASSIGNMENT ( #309, #257, ( #349 ) ) ;
#315 = CARTESIAN_POINT ( 'NONE',  ( 0.000000000000000000, 5.000000000000000000, 0.000000000000000000 ) ) ;
#316 = LINE ( 'NONE', #40, #118 ) ;
#317 = LINE ( 'NONE', #290, #337 ) ;
#318 = LOCAL_TIME ( 21, 32, 29.00000000000000000, #152 ) ;
#319 = CIRCLE ( 'NONE', #87, 11.50000000000000000 ) ;
#320 = CARTESIAN_POINT ( 'NONE',  ( 0.000000000000000000, 0.000000000000000000, 0.000000000000000000 ) ) ;
#321 = APPLICATION_CONTEXT ( 'configuration controlled 3d designs of mechanical parts and assemblies' ) ;
#322 = CALENDAR_DATE ( 2024, 17, 12 ) ;
#323 = ORIENTED_EDGE ( 'NONE', *, *, #10, .F. ) ;
#324 = CARTESIAN_POINT ( 'NONE',  ( 0.000000000000000000, 2.500000000000007550, 0.000000000000000000 ) ) ;
#325 = CLOSED_SHELL ( 'NONE', ( #148, #119, #326, #150, #310, #269, #1, #274, #221, #246 ) ) ;
#326 = ADVANCED_FACE ( 'NONE', ( #300 ), #51, .F. ) ;
#327 = CARTESIAN_POINT ( 'NONE',  ( 0.000000000000000000, 0.000000000000000000, -11.50000000000000000 ) ) ;
#328 = ORIENTED_EDGE ( 'NONE', *, *, #169, .F. ) ;
#329 = CARTESIAN_POINT ( 'NONE',  ( 12.00000000000000000, 5.000000000000000000, 0.000000000000000000 ) ) ;
#330 = DIRECTION ( 'NONE',  ( 0.000000000000000000, 0.000000000000000000, -1.000000000000000000 ) ) ;
#331 = EDGE_CURVE ( 'NONE', #252, #144, #296, .T. ) ;
#332 = AXIS2_PLACEMENT_3D ( 'NONE', #85, #215, #136 ) ;
#333 = VERTEX_POINT ( 'NONE', #327 ) ;
#334 = CARTESIAN_POINT ( 'NONE',  ( 0.000000000000000000, 2.500000000000007550, -9.000000000000001776 ) ) ;
#335 = VERTEX_POINT ( 'NONE', #211 ) ;
#336 = CC_DESIGN_APPROVAL ( #139, ( #83 ) ) ;
#337 = VECTOR ( 'NONE', #258, 1000.000000000000000 ) ;
#338 = CARTESIAN_POINT ( 'NONE',  ( 0.000000000000000000, 0.000000000000000000, 0.000000000000000000 ) ) ;
#339 = CARTESIAN_POINT ( 'NONE',  ( 1.408343819019456176E-15, 0.000000000000000000, 11.50000000000000000 ) ) ;
#340 = EDGE_CURVE ( 'NONE', #216, #275, #292, .T. ) ;
#341 = DIRECTION ( 'NONE',  ( -0.000000000000000000, -1.000000000000000000, -0.000000000000000000 ) ) ;
#342 = DATE_AND_TIME ( #240, #65 ) ;
#343 = DIRECTION ( 'NONE',  ( 0.000000000000000000, -0.7071067811865352493, -0.7071067811865597852 ) ) ;
#344 = CIRCLE ( 'NONE', #312, 12.00000000000000000 ) ;
#345 = CALENDAR_DATE ( 2024, 17, 12 ) ;
#346 = FACE_OUTER_BOUND ( 'NONE', #187, .T. ) ;
#347 = CARTESIAN_POINT ( 'NONE',  ( 0.000000000000000000, 0.000000000000000000, 0.000000000000000000 ) ) ;
#348 = COORDINATED_UNIVERSAL_TIME_OFFSET ( 1, 0, .AHEAD. ) ;
#349 = PRODUCT ( 'siege soupape-23', 'siege soupape-23', '', ( #251 ) ) ;
ENDSEC;
END-ISO-10303-21;
