ISO-10303-21;
HEADER;
FILE_DESCRIPTION (( 'STEP AP214' ),
    '1' );
FILE_NAME ('pdc tige 1.STEP',
    '2024-12-06T22:21:54',
    ( '' ),
    ( '' ),
    'SwSTEP 2.0',
    'SolidWorks 2024',
    '' );
FILE_SCHEMA (( 'AUTOMOTIVE_DESIGN' ));
ENDSEC;

DATA;
#1 = AXIS2_PLACEMENT_3D ( 'NONE', #112, #222, #320 ) ;
#2 =( NAMED_UNIT ( * ) PLANE_ANGLE_UNIT ( ) SI_UNIT ( $, .RADIAN. ) );
#3 = EDGE_CURVE ( 'NONE', #200, #88, #227, .T. ) ;
#4 = DIRECTION ( 'NONE',  ( -1.000000000000000000, -0.000000000000000000, -0.000000000000000000 ) ) ;
#5 = VERTEX_POINT ( 'NONE', #128 ) ;
#6 = DIRECTION ( 'NONE',  ( 0.000000000000000000, 1.000000000000000000, 0.000000000000000000 ) ) ;
#7 = ORIENTED_EDGE ( 'NONE', *, *, #54, .F. ) ;
#8 = PLANE ( 'NONE',  #133 ) ;
#9 = EDGE_LOOP ( 'NONE', ( #242, #163, #74, #296 ) ) ;
#10 = VECTOR ( 'NONE', #259, 1000.000000000000000 ) ;
#11 = VECTOR ( 'NONE', #253, 1000.000000000000000 ) ;
#12 = DIRECTION ( 'NONE',  ( 0.000000000000000000, 1.000000000000000000, 0.000000000000000000 ) ) ;
#13 = CARTESIAN_POINT ( 'NONE',  ( -5.775862068965527563, 20.60344827586209249, 10.00000000000000000 ) ) ;
#14 = DIRECTION ( 'NONE',  ( 1.000000000000000000, 1.084202172485504434E-16, -0.000000000000000000 ) ) ;
#15 = DIRECTION ( 'NONE',  ( -0.000000000000000000, -0.000000000000000000, -1.000000000000000000 ) ) ;
#16 = EDGE_CURVE ( 'NONE', #117, #94, #226, .T. ) ;
#17 = DIRECTION ( 'NONE',  ( 0.000000000000000000, 1.000000000000000000, 0.000000000000000000 ) ) ;
#18 = DIRECTION ( 'NONE',  ( 1.000000000000000000, 1.084202172485504434E-16, 0.000000000000000000 ) ) ;
#19 = EDGE_LOOP ( 'NONE', ( #168, #199 ) ) ;
#20 = DIRECTION ( 'NONE',  ( 1.000000000000000000, 1.084202172485504434E-16, -0.000000000000000000 ) ) ;
#21 =( GEOMETRIC_REPRESENTATION_CONTEXT ( 3 ) GLOBAL_UNCERTAINTY_ASSIGNED_CONTEXT ( ( #157 ) ) GLOBAL_UNIT_ASSIGNED_CONTEXT ( ( #50, #2, #106 ) ) REPRESENTATION_CONTEXT ( 'NONE', 'WORKASPACE' ) );
#22 = PRODUCT_RELATED_PRODUCT_CATEGORY ( 'part', '', ( #190 ) ) ;
#23 = ORIENTED_EDGE ( 'NONE', *, *, #95, .F. ) ;
#24 = CARTESIAN_POINT ( 'NONE',  ( -5.775862068965520457, -32.39655172413790751, 5.048930930963563490 ) ) ;
#25 = DIRECTION ( 'NONE',  ( 1.000000000000000000, 1.084202172485504434E-16, 0.000000000000000000 ) ) ;
#26 = CIRCLE ( 'NONE', #213, 3.000000000000000888 ) ;
#27 = DIRECTION ( 'NONE',  ( -0.000000000000000000, 0.000000000000000000, 1.000000000000000000 ) ) ;
#28 = CYLINDRICAL_SURFACE ( 'NONE', #78, 2.999999999999999112 ) ;
#29 = ADVANCED_FACE ( 'NONE', ( #257 ), #252, .F. ) ;
#30 = CARTESIAN_POINT ( 'NONE',  ( 0.000000000000000000, 0.000000000000000000, 0.000000000000000000 ) ) ;
#31 = ADVANCED_FACE ( 'NONE', ( #123 ), #46, .F. ) ;
#32 = ORIENTED_EDGE ( 'NONE', *, *, #165, .F. ) ;
#33 = SURFACE_STYLE_USAGE ( .BOTH. , #247 ) ;
#34 = FACE_OUTER_BOUND ( 'NONE', #272, .T. ) ;
#35 = VERTEX_POINT ( 'NONE', #71 ) ;
#36 = LINE ( 'NONE', #329, #11 ) ;
#37 = ORIENTED_EDGE ( 'NONE', *, *, #201, .F. ) ;
#38 = VECTOR ( 'NONE', #126, 1000.000000000000000 ) ;
#39 = ORIENTED_EDGE ( 'NONE', *, *, #178, .F. ) ;
#40 = EDGE_CURVE ( 'NONE', #94, #88, #68, .T. ) ;
#41 = VECTOR ( 'NONE', #108, 1000.000000000000000 ) ;
#42 = DIRECTION ( 'NONE',  ( 1.000000000000000000, 1.084202172485504434E-16, 0.000000000000000000 ) ) ;
#43 = EDGE_LOOP ( 'NONE', ( #175, #198, #218, #322 ) ) ;
#44 = CARTESIAN_POINT ( 'NONE',  ( 4.224137931034476878, -9.396551724137907513, 5.048930930963563490 ) ) ;
#45 = PLANE ( 'NONE',  #103 ) ;
#46 = PLANE ( 'NONE',  #205 ) ;
#47 = ORIENTED_EDGE ( 'NONE', *, *, #188, .T. ) ;
#48 = CYLINDRICAL_SURFACE ( 'NONE', #118, 2.999999999999999112 ) ;
#49 = CARTESIAN_POINT ( 'NONE',  ( 4.224137931034473326, 20.60344827586209249, 0.000000000000000000 ) ) ;
#50 =( LENGTH_UNIT ( ) NAMED_UNIT ( * ) SI_UNIT ( .MILLI., .METRE. ) );
#51 = EDGE_CURVE ( 'NONE', #327, #97, #179, .T. ) ;
#52 = CARTESIAN_POINT ( 'NONE',  ( -5.775862068965527563, 20.60344827586209249, 0.000000000000000000 ) ) ;
#53 = DIRECTION ( 'NONE',  ( 1.084202172485504434E-16, -1.000000000000000000, 0.000000000000000000 ) ) ;
#54 = EDGE_CURVE ( 'NONE', #117, #200, #152, .T. ) ;
#55 = AXIS2_PLACEMENT_3D ( 'NONE', #63, #86, #122 ) ;
#56 = PLANE ( 'NONE',  #146 ) ;
#57 = VERTEX_POINT ( 'NONE', #228 ) ;
#58 = CARTESIAN_POINT ( 'NONE',  ( -5.775862068965520457, -29.39655172413790751, 5.048930930963563490 ) ) ;
#59 = CIRCLE ( 'NONE', #266, 2.999999999999999112 ) ;
#60 = ORIENTED_EDGE ( 'NONE', *, *, #331, .F. ) ;
#61 = LINE ( 'NONE', #137, #173 ) ;
#62 = ORIENTED_EDGE ( 'NONE', *, *, #224, .F. ) ;
#63 = CARTESIAN_POINT ( 'NONE',  ( -5.775862068965523122, -9.396551724137909289, 5.048930930963563490 ) ) ;
#64 = VECTOR ( 'NONE', #148, 1000.000000000000000 ) ;
#65 = ADVANCED_FACE ( 'NONE', ( #100, #333, #223 ), #45, .F. ) ;
#66 = ORIENTED_EDGE ( 'NONE', *, *, #284, .F. ) ;
#67 = ORIENTED_EDGE ( 'NONE', *, *, #183, .F. ) ;
#68 = LINE ( 'NONE', #280, #38 ) ;
#69 = EDGE_CURVE ( 'NONE', #219, #330, #144, .T. ) ;
#70 = CARTESIAN_POINT ( 'NONE',  ( 4.224137931034482207, -59.39655172413790751, 10.00000000000000000 ) ) ;
#71 = CARTESIAN_POINT ( 'NONE',  ( 4.224137931034479543, -26.39655172413790751, 5.048930930963563490 ) ) ;
#72 = AXIS2_PLACEMENT_3D ( 'NONE', #288, #130, #132 ) ;
#73 = DIRECTION ( 'NONE',  ( -0.000000000000000000, -0.000000000000000000, -1.000000000000000000 ) ) ;
#74 = ORIENTED_EDGE ( 'NONE', *, *, #165, .T. ) ;
#75 = VERTEX_POINT ( 'NONE', #310 ) ;
#76 = DIRECTION ( 'NONE',  ( 0.000000000000000000, 1.000000000000000000, 0.000000000000000000 ) ) ;
#77 = AXIS2_PLACEMENT_3D ( 'NONE', #44, #212, #119 ) ;
#78 = AXIS2_PLACEMENT_3D ( 'NONE', #189, #79, #264 ) ;
#79 = DIRECTION ( 'NONE',  ( 1.000000000000000000, 1.084202172485504434E-16, -0.000000000000000000 ) ) ;
#80 = EDGE_CURVE ( 'NONE', #170, #255, #26, .T. ) ;
#81 = FACE_OUTER_BOUND ( 'NONE', #197, .T. ) ;
#82 = PRODUCT_CONTEXT ( 'NONE', #84, 'mechanical' ) ;
#83 = CARTESIAN_POINT ( 'NONE',  ( -5.775862068965516904, -59.39655172413790751, 0.000000000000000000 ) ) ;
#84 = APPLICATION_CONTEXT ( 'automotive_design' ) ;
#85 = EDGE_LOOP ( 'NONE', ( #145, #7, #93, #281 ) ) ;
#86 = DIRECTION ( 'NONE',  ( 1.000000000000000000, 1.084202172485504434E-16, -0.000000000000000000 ) ) ;
#87 = VECTOR ( 'NONE', #15, 1000.000000000000000 ) ;
#88 = VERTEX_POINT ( 'NONE', #49 ) ;
#89 =( GEOMETRIC_REPRESENTATION_CONTEXT ( 3 ) GLOBAL_UNCERTAINTY_ASSIGNED_CONTEXT ( ( #285 ) ) GLOBAL_UNIT_ASSIGNED_CONTEXT ( ( #149, #323, #301 ) ) REPRESENTATION_CONTEXT ( 'NONE', 'WORKASPACE' ) );
#90 = ORIENTED_EDGE ( 'NONE', *, *, #40, .T. ) ;
#91 = LINE ( 'NONE', #294, #249 ) ;
#92 = EDGE_CURVE ( 'NONE', #57, #274, #102, .T. ) ;
#93 = ORIENTED_EDGE ( 'NONE', *, *, #271, .F. ) ;
#94 = VERTEX_POINT ( 'NONE', #230 ) ;
#95 = EDGE_CURVE ( 'NONE', #219, #35, #206, .T. ) ;
#96 = FILL_AREA_STYLE_COLOUR ( '', #261 ) ;
#97 = VERTEX_POINT ( 'NONE', #251 ) ;
#98 = CARTESIAN_POINT ( 'NONE',  ( -5.775862068965516904, -59.39655172413790751, 10.00000000000000000 ) ) ;
#99 = CARTESIAN_POINT ( 'NONE',  ( 4.224137931034473326, 20.60344827586209249, 10.00000000000000000 ) ) ;
#100 = FACE_BOUND ( 'NONE', #279, .T. ) ;
#101 = DIRECTION ( 'NONE',  ( -1.301042606982605321E-16, 1.000000000000000000, 0.000000000000000000 ) ) ;
#102 = LINE ( 'NONE', #156, #10 ) ;
#103 = AXIS2_PLACEMENT_3D ( 'NONE', #150, #254, #101 ) ;
#104 = VECTOR ( 'NONE', #180, 1000.000000000000000 ) ;
#105 = EDGE_CURVE ( 'NONE', #170, #5, #61, .T. ) ;
#106 =( NAMED_UNIT ( * ) SI_UNIT ( $, .STERADIAN. ) SOLID_ANGLE_UNIT ( ) );
#107 = PLANE ( 'NONE',  #72 ) ;
#108 = DIRECTION ( 'NONE',  ( -1.000000000000000000, -0.000000000000000000, -0.000000000000000000 ) ) ;
#109 = PRODUCT_DEFINITION_FORMATION_WITH_SPECIFIED_SOURCE ( 'ANY', '', #190, .NOT_KNOWN. ) ;
#110 = DIRECTION ( 'NONE',  ( 1.000000000000000000, 0.000000000000000000, 0.000000000000000000 ) ) ;
#111 = ORIENTED_EDGE ( 'NONE', *, *, #116, .T. ) ;
#112 = CARTESIAN_POINT ( 'NONE',  ( -5.775862068965523122, -9.396551724137909289, 5.048930930963563490 ) ) ;
#113 = STYLED_ITEM ( 'NONE', ( #273 ), #160 ) ;
#114 = CARTESIAN_POINT ( 'NONE',  ( 0.000000000000000000, 0.000000000000000000, 0.000000000000000000 ) ) ;
#115 = PRESENTATION_LAYER_ASSIGNMENT (  '', '', ( #113 ) ) ;
#116 = EDGE_CURVE ( 'NONE', #35, #324, #131, .T. ) ;
#117 = VERTEX_POINT ( 'NONE', #70 ) ;
#118 = AXIS2_PLACEMENT_3D ( 'NONE', #250, #20, #127 ) ;
#119 = DIRECTION ( 'NONE',  ( 0.000000000000000000, 1.000000000000000000, 0.000000000000000000 ) ) ;
#120 = DIRECTION ( 'NONE',  ( 0.000000000000000000, -1.000000000000000000, 0.000000000000000000 ) ) ;
#121 = LINE ( 'NONE', #98, #177 ) ;
#122 = DIRECTION ( 'NONE',  ( 0.000000000000000000, 1.000000000000000000, 0.000000000000000000 ) ) ;
#123 = FACE_OUTER_BOUND ( 'NONE', #276, .T. ) ;
#124 = ORIENTED_EDGE ( 'NONE', *, *, #16, .T. ) ;
#125 = PRODUCT_DEFINITION ( 'UNKNOWN', '', #109, #186 ) ;
#126 = DIRECTION ( 'NONE',  ( -0.000000000000000000, -0.000000000000000000, -1.000000000000000000 ) ) ;
#127 = DIRECTION ( 'NONE',  ( 0.000000000000000000, 1.000000000000000000, 0.000000000000000000 ) ) ;
#128 = CARTESIAN_POINT ( 'NONE',  ( 4.224137931034476878, -12.39655172413790751, 5.048930930963563490 ) ) ;
#129 = DIRECTION ( 'NONE',  ( 1.000000000000000000, 1.084202172485504434E-16, -0.000000000000000000 ) ) ;
#130 = DIRECTION ( 'NONE',  ( 0.000000000000000000, 1.000000000000000000, 0.000000000000000000 ) ) ;
#131 = CIRCLE ( 'NONE', #277, 2.999999999999999112 ) ;
#132 = DIRECTION ( 'NONE',  ( 0.000000000000000000, -0.000000000000000000, 1.000000000000000000 ) ) ;
#133 = AXIS2_PLACEMENT_3D ( 'NONE', #114, #196, #297 ) ;
#134 = CARTESIAN_POINT ( 'NONE',  ( -5.775862068965527563, 20.60344827586209249, 10.00000000000000000 ) ) ;
#135 = FACE_BOUND ( 'NONE', #195, .T. ) ;
#136 = ORIENTED_EDGE ( 'NONE', *, *, #69, .F. ) ;
#137 = CARTESIAN_POINT ( 'NONE',  ( -5.775862068965523122, -12.39655172413790929, 5.048930930963563490 ) ) ;
#138 = ADVANCED_FACE ( 'NONE', ( #316 ), #214, .F. ) ;
#139 = ORIENTED_EDGE ( 'NONE', *, *, #188, .F. ) ;
#140 = CARTESIAN_POINT ( 'NONE',  ( -5.775862068965523122, -12.39655172413790929, 5.048930930963563490 ) ) ;
#141 = CARTESIAN_POINT ( 'NONE',  ( 4.224137931034476878, -9.396551724137907513, 5.048930930963563490 ) ) ;
#142 = ORIENTED_EDGE ( 'NONE', *, *, #262, .F. ) ;
#143 = ORIENTED_EDGE ( 'NONE', *, *, #80, .T. ) ;
#144 = CIRCLE ( 'NONE', #309, 2.999999999999999112 ) ;
#145 = ORIENTED_EDGE ( 'NONE', *, *, #243, .T. ) ;
#146 = AXIS2_PLACEMENT_3D ( 'NONE', #314, #312, #53 ) ;
#147 = CARTESIAN_POINT ( 'NONE',  ( -5.775862068965527563, 20.60344827586209249, 10.00000000000000000 ) ) ;
#148 = DIRECTION ( 'NONE',  ( -1.084202172485504434E-16, 1.000000000000000000, -0.000000000000000000 ) ) ;
#149 =( LENGTH_UNIT ( ) NAMED_UNIT ( * ) SI_UNIT ( .MILLI., .METRE. ) );
#150 = CARTESIAN_POINT ( 'NONE',  ( -5.775862068965527563, 20.60344827586209249, 10.00000000000000000 ) ) ;
#151 = EDGE_CURVE ( 'NONE', #324, #35, #245, .T. ) ;
#152 = LINE ( 'NONE', #305, #232 ) ;
#153 = CLOSED_SHELL ( 'NONE', ( #138, #246, #65, #311, #306, #31, #295, #235, #319, #29 ) ) ;
#154 = VECTOR ( 'NONE', #4, 1000.000000000000000 ) ;
#155 = ORIENTED_EDGE ( 'NONE', *, *, #95, .T. ) ;
#156 = CARTESIAN_POINT ( 'NONE',  ( -5.775862068965527563, 20.60344827586209249, 10.00000000000000000 ) ) ;
#157 = UNCERTAINTY_MEASURE_WITH_UNIT (LENGTH_MEASURE( 1.000000000000000082E-05 ), #50, 'distance_accuracy_value', 'NONE');
#158 = PLANE ( 'NONE',  #215 ) ;
#159 = CARTESIAN_POINT ( 'NONE',  ( 0.000000000000000000, 0.000000000000000000, 10.00000000000000000 ) ) ;
#160 = MANIFOLD_SOLID_BREP ( 'Enl\X2\00e8\X0\v. mat.-Extru.1', #153 ) ;
#161 = VECTOR ( 'NONE', #302, 1000.000000000000000 ) ;
#162 = AXIS2_PLACEMENT_3D ( 'NONE', #141, #241, #12 ) ;
#163 = ORIENTED_EDGE ( 'NONE', *, *, #209, .F. ) ;
#164 = DIRECTION ( 'NONE',  ( 1.000000000000000000, 1.084202172485504434E-16, 0.000000000000000000 ) ) ;
#165 = EDGE_CURVE ( 'NONE', #255, #75, #36, .T. ) ;
#166 = ORIENTED_EDGE ( 'NONE', *, *, #262, .T. ) ;
#167 = CARTESIAN_POINT ( 'NONE',  ( 4.224137931034482207, -59.39655172413790751, 0.000000000000000000 ) ) ;
#168 = ORIENTED_EDGE ( 'NONE', *, *, #69, .T. ) ;
#169 = DIRECTION ( 'NONE',  ( 1.000000000000000000, 1.084202172485504434E-16, -0.000000000000000000 ) ) ;
#170 = VERTEX_POINT ( 'NONE', #140 ) ;
#171 = ORIENTED_EDGE ( 'NONE', *, *, #51, .F. ) ;
#172 = CARTESIAN_POINT ( 'NONE',  ( -5.775862068965516904, -59.39655172413790751, 10.00000000000000000 ) ) ;
#173 = VECTOR ( 'NONE', #14, 1000.000000000000000 ) ;
#174 = CARTESIAN_POINT ( 'NONE',  ( 4.224137931034479543, -29.39655172413790751, 5.048930930963563490 ) ) ;
#175 = ORIENTED_EDGE ( 'NONE', *, *, #3, .T. ) ;
#176 = CARTESIAN_POINT ( 'NONE',  ( -5.775862068965523122, -6.396551724137907513, 5.048930930963563490 ) ) ;
#177 = VECTOR ( 'NONE', #260, 1000.000000000000000 ) ;
#178 = EDGE_CURVE ( 'NONE', #75, #5, #221, .T. ) ;
#179 = LINE ( 'NONE', #172, #87 ) ;
#180 = DIRECTION ( 'NONE',  ( 1.000000000000000000, 0.000000000000000000, 0.000000000000000000 ) ) ;
#181 = EDGE_LOOP ( 'NONE', ( #39, #67 ) ) ;
#182 = ORIENTED_EDGE ( 'NONE', *, *, #80, .F. ) ;
#183 = EDGE_CURVE ( 'NONE', #5, #75, #234, .T. ) ;
#184 = CARTESIAN_POINT ( 'NONE',  ( -5.775862068965523122, -9.396551724137909289, 5.048930930963563490 ) ) ;
#185 = DIRECTION ( 'NONE',  ( 0.000000000000000000, 0.000000000000000000, 1.000000000000000000 ) ) ;
#186 = PRODUCT_DEFINITION_CONTEXT ( 'detailed design', #328, 'design' ) ;
#187 = DIRECTION ( 'NONE',  ( 1.000000000000000000, 0.000000000000000000, 0.000000000000000000 ) ) ;
#188 = EDGE_CURVE ( 'NONE', #57, #327, #193, .T. ) ;
#189 = CARTESIAN_POINT ( 'NONE',  ( -5.775862068965520457, -29.39655172413790751, 5.048930930963563490 ) ) ;
#190 = PRODUCT ( 'pdc tige 1', 'pdc tige 1', '', ( #82 ) ) ;
#191 = FACE_BOUND ( 'NONE', #181, .T. ) ;
#192 = EDGE_LOOP ( 'NONE', ( #299, #171, #139, #307 ) ) ;
#193 = LINE ( 'NONE', #147, #208 ) ;
#194 = CARTESIAN_POINT ( 'NONE',  ( -5.775862068965520457, -26.39655172413790751, 5.048930930963563490 ) ) ;
#195 = EDGE_LOOP ( 'NONE', ( #268, #275 ) ) ;
#196 = DIRECTION ( 'NONE',  ( -0.000000000000000000, 0.000000000000000000, 1.000000000000000000 ) ) ;
#197 = EDGE_LOOP ( 'NONE', ( #142, #136, #155, #111 ) ) ;
#198 = ORIENTED_EDGE ( 'NONE', *, *, #40, .F. ) ;
#199 = ORIENTED_EDGE ( 'NONE', *, *, #201, .T. ) ;
#200 = VERTEX_POINT ( 'NONE', #167 ) ;
#201 = EDGE_CURVE ( 'NONE', #330, #219, #59, .T. ) ;
#202 = DIRECTION ( 'NONE',  ( 1.000000000000000000, 1.084202172485504434E-16, -0.000000000000000000 ) ) ;
#203 = ORIENTED_EDGE ( 'NONE', *, *, #209, .T. ) ;
#204 = CARTESIAN_POINT ( 'NONE',  ( -5.775862068965520457, -29.39655172413790751, 5.048930930963563490 ) ) ;
#205 = AXIS2_PLACEMENT_3D ( 'NONE', #13, #120, #325 ) ;
#206 = LINE ( 'NONE', #334, #335 ) ;
#207 = LINE ( 'NONE', #134, #41 ) ;
#208 = VECTOR ( 'NONE', #291, 1000.000000000000000 ) ;
#209 = EDGE_CURVE ( 'NONE', #255, #170, #321, .T. ) ;
#210 = CARTESIAN_POINT ( 'NONE',  ( -5.775862068965520457, -32.39655172413790751, 5.048930930963563490 ) ) ;
#211 = APPLICATION_PROTOCOL_DEFINITION ( 'draft international standard', 'automotive_design', 1998, #84 ) ;
#212 = DIRECTION ( 'NONE',  ( 1.000000000000000000, 1.084202172485504434E-16, 0.000000000000000000 ) ) ;
#213 = AXIS2_PLACEMENT_3D ( 'NONE', #184, #25, #283 ) ;
#214 = CYLINDRICAL_SURFACE ( 'NONE', #55, 3.000000000000000888 ) ;
#215 = AXIS2_PLACEMENT_3D ( 'NONE', #159, #27, #187 ) ;
#216 = EDGE_LOOP ( 'NONE', ( #47, #290, #124, #220 ) ) ;
#217 = SURFACE_STYLE_FILL_AREA ( #225 ) ;
#218 = ORIENTED_EDGE ( 'NONE', *, *, #16, .F. ) ;
#219 = VERTEX_POINT ( 'NONE', #194 ) ;
#220 = ORIENTED_EDGE ( 'NONE', *, *, #284, .T. ) ;
#221 = CIRCLE ( 'NONE', #77, 3.000000000000000888 ) ;
#222 = DIRECTION ( 'NONE',  ( 1.000000000000000000, 1.084202172485504434E-16, 0.000000000000000000 ) ) ;
#223 = FACE_OUTER_BOUND ( 'NONE', #192, .T. ) ;
#224 = EDGE_CURVE ( 'NONE', #274, #97, #91, .T. ) ;
#225 = FILL_AREA_STYLE ('',( #96 ) ) ;
#226 = LINE ( 'NONE', #99, #161 ) ;
#227 = LINE ( 'NONE', #248, #64 ) ;
#228 = CARTESIAN_POINT ( 'NONE',  ( -5.775862068965527563, 20.60344827586209249, 10.00000000000000000 ) ) ;
#229 = LINE ( 'NONE', #24, #292 ) ;
#230 = CARTESIAN_POINT ( 'NONE',  ( 4.224137931034473326, 20.60344827586209249, 10.00000000000000000 ) ) ;
#231 = FACE_OUTER_BOUND ( 'NONE', #85, .T. ) ;
#232 = VECTOR ( 'NONE', #73, 1000.000000000000000 ) ;
#233 = FACE_OUTER_BOUND ( 'NONE', #216, .T. ) ;
#234 = CIRCLE ( 'NONE', #162, 3.000000000000000888 ) ;
#235 = ADVANCED_FACE ( 'NONE', ( #34 ), #8, .F. ) ;
#236 = CARTESIAN_POINT ( 'NONE',  ( -5.775862068965516904, -59.39655172413790751, 10.00000000000000000 ) ) ;
#237 = LINE ( 'NONE', #286, #154 ) ;
#238 = ORIENTED_EDGE ( 'NONE', *, *, #105, .T. ) ;
#239 = DIRECTION ( 'NONE',  ( 0.000000000000000000, 1.000000000000000000, 0.000000000000000000 ) ) ;
#240 = ORIENTED_EDGE ( 'NONE', *, *, #3, .F. ) ;
#241 = DIRECTION ( 'NONE',  ( 1.000000000000000000, 1.084202172485504434E-16, 0.000000000000000000 ) ) ;
#242 = ORIENTED_EDGE ( 'NONE', *, *, #105, .F. ) ;
#243 = EDGE_CURVE ( 'NONE', #97, #200, #267, .T. ) ;
#244 = EDGE_LOOP ( 'NONE', ( #37, #166, #269, #23 ) ) ;
#245 = CIRCLE ( 'NONE', #303, 2.999999999999999112 ) ;
#246 = ADVANCED_FACE ( 'NONE', ( #258 ), #48, .F. ) ;
#247 = SURFACE_SIDE_STYLE ('',( #217 ) ) ;
#248 = CARTESIAN_POINT ( 'NONE',  ( 4.224137931034473326, 20.60344827586209249, 0.000000000000000000 ) ) ;
#249 = VECTOR ( 'NONE', #270, 1000.000000000000000 ) ;
#250 = CARTESIAN_POINT ( 'NONE',  ( -5.775862068965520457, -29.39655172413790751, 5.048930930963563490 ) ) ;
#251 = CARTESIAN_POINT ( 'NONE',  ( -5.775862068965516904, -59.39655172413790751, 0.000000000000000000 ) ) ;
#252 = CYLINDRICAL_SURFACE ( 'NONE', #317, 3.000000000000000888 ) ;
#253 = DIRECTION ( 'NONE',  ( 1.000000000000000000, 1.084202172485504434E-16, -0.000000000000000000 ) ) ;
#254 = DIRECTION ( 'NONE',  ( 1.000000000000000000, 1.301042606982605321E-16, -0.000000000000000000 ) ) ;
#255 = VERTEX_POINT ( 'NONE', #176 ) ;
#256 = AXIS2_PLACEMENT_3D ( 'NONE', #30, #185, #110 ) ;
#257 = FACE_OUTER_BOUND ( 'NONE', #9, .T. ) ;
#258 = FACE_OUTER_BOUND ( 'NONE', #244, .T. ) ;
#259 = DIRECTION ( 'NONE',  ( -0.000000000000000000, -0.000000000000000000, -1.000000000000000000 ) ) ;
#260 = DIRECTION ( 'NONE',  ( 1.000000000000000000, 0.000000000000000000, 0.000000000000000000 ) ) ;
#261 = COLOUR_RGB ( '',0.7921568627450980005, 0.8196078431372548767, 0.9333333333333333481 ) ;
#262 = EDGE_CURVE ( 'NONE', #330, #324, #229, .T. ) ;
#263 = CARTESIAN_POINT ( 'NONE',  ( 4.224137931034479543, -32.39655172413790751, 5.048930930963563490 ) ) ;
#264 = DIRECTION ( 'NONE',  ( 0.000000000000000000, 1.000000000000000000, 0.000000000000000000 ) ) ;
#265 = PRODUCT_DEFINITION_SHAPE ( 'NONE', 'NONE',  #125 ) ;
#266 = AXIS2_PLACEMENT_3D ( 'NONE', #58, #164, #6 ) ;
#267 = LINE ( 'NONE', #83, #104 ) ;
#268 = ORIENTED_EDGE ( 'NONE', *, *, #116, .F. ) ;
#269 = ORIENTED_EDGE ( 'NONE', *, *, #151, .T. ) ;
#270 = DIRECTION ( 'NONE',  ( 1.301042606982605321E-16, -1.000000000000000000, 0.000000000000000000 ) ) ;
#271 = EDGE_CURVE ( 'NONE', #327, #117, #121, .T. ) ;
#272 = EDGE_LOOP ( 'NONE', ( #62, #60, #240, #318 ) ) ;
#273 = PRESENTATION_STYLE_ASSIGNMENT (( #33 ) ) ;
#274 = VERTEX_POINT ( 'NONE', #52 ) ;
#275 = ORIENTED_EDGE ( 'NONE', *, *, #151, .F. ) ;
#276 = EDGE_LOOP ( 'NONE', ( #282, #308, #66, #90 ) ) ;
#277 = AXIS2_PLACEMENT_3D ( 'NONE', #174, #278, #239 ) ;
#278 = DIRECTION ( 'NONE',  ( 1.000000000000000000, 1.084202172485504434E-16, 0.000000000000000000 ) ) ;
#279 = EDGE_LOOP ( 'NONE', ( #203, #143 ) ) ;
#280 = CARTESIAN_POINT ( 'NONE',  ( 4.224137931034473326, 20.60344827586209249, 10.00000000000000000 ) ) ;
#281 = ORIENTED_EDGE ( 'NONE', *, *, #51, .T. ) ;
#282 = ORIENTED_EDGE ( 'NONE', *, *, #331, .T. ) ;
#283 = DIRECTION ( 'NONE',  ( 0.000000000000000000, 1.000000000000000000, 0.000000000000000000 ) ) ;
#284 = EDGE_CURVE ( 'NONE', #94, #57, #207, .T. ) ;
#285 = UNCERTAINTY_MEASURE_WITH_UNIT (LENGTH_MEASURE( 1.000000000000000082E-05 ), #149, 'distance_accuracy_value', 'NONE');
#286 = CARTESIAN_POINT ( 'NONE',  ( -5.775862068965527563, 20.60344827586209249, 0.000000000000000000 ) ) ;
#287 = APPLICATION_PROTOCOL_DEFINITION ( 'draft international standard', 'automotive_design', 1998, #328 ) ;
#288 = CARTESIAN_POINT ( 'NONE',  ( -5.775862068965516904, -59.39655172413790751, 10.00000000000000000 ) ) ;
#289 = MECHANICAL_DESIGN_GEOMETRIC_PRESENTATION_REPRESENTATION (  '', ( #113 ), #89 ) ;
#290 = ORIENTED_EDGE ( 'NONE', *, *, #271, .T. ) ;
#291 = DIRECTION ( 'NONE',  ( 1.301042606982605321E-16, -1.000000000000000000, 0.000000000000000000 ) ) ;
#292 = VECTOR ( 'NONE', #129, 1000.000000000000000 ) ;
#293 = EDGE_LOOP ( 'NONE', ( #182, #238, #298, #32 ) ) ;
#294 = CARTESIAN_POINT ( 'NONE',  ( -5.775862068965527563, 20.60344827586209249, 0.000000000000000000 ) ) ;
#295 = ADVANCED_FACE ( 'NONE', ( #233 ), #158, .T. ) ;
#296 = ORIENTED_EDGE ( 'NONE', *, *, #178, .T. ) ;
#297 = DIRECTION ( 'NONE',  ( 1.000000000000000000, 0.000000000000000000, 0.000000000000000000 ) ) ;
#298 = ORIENTED_EDGE ( 'NONE', *, *, #183, .T. ) ;
#299 = ORIENTED_EDGE ( 'NONE', *, *, #224, .T. ) ;
#300 = DIRECTION ( 'NONE',  ( 0.000000000000000000, 1.000000000000000000, 0.000000000000000000 ) ) ;
#301 =( NAMED_UNIT ( * ) SI_UNIT ( $, .STERADIAN. ) SOLID_ANGLE_UNIT ( ) );
#302 = DIRECTION ( 'NONE',  ( -1.084202172485504434E-16, 1.000000000000000000, -0.000000000000000000 ) ) ;
#303 = AXIS2_PLACEMENT_3D ( 'NONE', #304, #42, #17 ) ;
#304 = CARTESIAN_POINT ( 'NONE',  ( 4.224137931034479543, -29.39655172413790751, 5.048930930963563490 ) ) ;
#305 = CARTESIAN_POINT ( 'NONE',  ( 4.224137931034482207, -59.39655172413790751, 10.00000000000000000 ) ) ;
#306 = ADVANCED_FACE ( 'NONE', ( #191, #135, #313 ), #56, .F. ) ;
#307 = ORIENTED_EDGE ( 'NONE', *, *, #92, .T. ) ;
#308 = ORIENTED_EDGE ( 'NONE', *, *, #92, .F. ) ;
#309 = AXIS2_PLACEMENT_3D ( 'NONE', #204, #18, #76 ) ;
#310 = CARTESIAN_POINT ( 'NONE',  ( 4.224137931034476878, -6.396551724137906625, 5.048930930963563490 ) ) ;
#311 = ADVANCED_FACE ( 'NONE', ( #231 ), #107, .F. ) ;
#312 = DIRECTION ( 'NONE',  ( -1.000000000000000000, -1.084202172485504434E-16, 0.000000000000000000 ) ) ;
#313 = FACE_OUTER_BOUND ( 'NONE', #43, .T. ) ;
#314 = CARTESIAN_POINT ( 'NONE',  ( 4.224137931034473326, 20.60344827586209249, 10.00000000000000000 ) ) ;
#315 = SHAPE_DEFINITION_REPRESENTATION ( #265, #326 ) ;
#316 = FACE_OUTER_BOUND ( 'NONE', #293, .T. ) ;
#317 = AXIS2_PLACEMENT_3D ( 'NONE', #332, #202, #300 ) ;
#318 = ORIENTED_EDGE ( 'NONE', *, *, #243, .F. ) ;
#319 = ADVANCED_FACE ( 'NONE', ( #81 ), #28, .F. ) ;
#320 = DIRECTION ( 'NONE',  ( 0.000000000000000000, 1.000000000000000000, 0.000000000000000000 ) ) ;
#321 = CIRCLE ( 'NONE', #1, 3.000000000000000888 ) ;
#322 = ORIENTED_EDGE ( 'NONE', *, *, #54, .T. ) ;
#323 =( NAMED_UNIT ( * ) PLANE_ANGLE_UNIT ( ) SI_UNIT ( $, .RADIAN. ) );
#324 = VERTEX_POINT ( 'NONE', #263 ) ;
#325 = DIRECTION ( 'NONE',  ( 0.000000000000000000, -0.000000000000000000, -1.000000000000000000 ) ) ;
#326 = ADVANCED_BREP_SHAPE_REPRESENTATION ( 'pdc tige 1', ( #160, #256 ), #21 ) ;
#327 = VERTEX_POINT ( 'NONE', #236 ) ;
#328 = APPLICATION_CONTEXT ( 'automotive_design' ) ;
#329 = CARTESIAN_POINT ( 'NONE',  ( -5.775862068965523122, -6.396551724137907513, 5.048930930963563490 ) ) ;
#330 = VERTEX_POINT ( 'NONE', #210 ) ;
#331 = EDGE_CURVE ( 'NONE', #88, #274, #237, .T. ) ;
#332 = CARTESIAN_POINT ( 'NONE',  ( -5.775862068965523122, -9.396551724137909289, 5.048930930963563490 ) ) ;
#333 = FACE_BOUND ( 'NONE', #19, .T. ) ;
#334 = CARTESIAN_POINT ( 'NONE',  ( -5.775862068965520457, -26.39655172413790751, 5.048930930963563490 ) ) ;
#335 = VECTOR ( 'NONE', #169, 1000.000000000000000 ) ;
ENDSEC;
END-ISO-10303-21;
