ISO-10303-21;
HEADER;
FILE_DESCRIPTION (( 'STEP AP203' ),
    '1' );
FILE_NAME ('bague roulement.STEP',
    '2024-12-12T23:51:56',
    ( '' ),
    ( '' ),
    'SwSTEP 2.0',
    'SolidWorks 2023',
    '' );
FILE_SCHEMA (( 'CONFIG_CONTROL_DESIGN' ));
ENDSEC;

DATA;
#1 = DIRECTION ( 'NONE',  ( 1.000000000000000000, 0.000000000000000000, 0.000000000000000000 ) ) ;
#2 = CIRCLE ( 'NONE', #195, 29.96999999999999886 ) ;
#3 = VERTEX_POINT ( 'NONE', #125 ) ;
#4 = FACE_BOUND ( 'NONE', #264, .T. ) ;
#5 = ORIENTED_EDGE ( 'NONE', *, *, #147, .T. ) ;
#6 = CARTESIAN_POINT ( 'NONE',  ( 13.00000000000000000, 0.000000000000000000, 0.000000000000000000 ) ) ;
#7 = LINE ( 'NONE', #56, #100 ) ;
#8 = VERTEX_POINT ( 'NONE', #230 ) ;
#9 = VERTEX_POINT ( 'NONE', #341 ) ;
#10 = CC_DESIGN_DATE_AND_TIME_ASSIGNMENT ( #210, #126, ( #73 ) ) ;
#11 = CARTESIAN_POINT ( 'NONE',  ( 0.4999999999999761302, 0.000000000000000000, 0.000000000000000000 ) ) ;
#12 = EDGE_LOOP ( 'NONE', ( #258, #217, #96, #31 ) ) ;
#13 = PERSON_AND_ORGANIZATION ( #311, #153 ) ;
#14 = CIRCLE ( 'NONE', #59, 29.96999999999999886 ) ;
#15 = MECHANICAL_CONTEXT ( 'NONE', #189, 'mechanical' ) ;
#16 = ADVANCED_FACE ( 'NONE', ( #315 ), #98, .F. ) ;
#17 = EDGE_LOOP ( 'NONE', ( #233, #154 ) ) ;
#18 = CIRCLE ( 'NONE', #172, 33.53000000000000114 ) ;
#19 = PERSON_AND_ORGANIZATION ( #311, #153 ) ;
#20 = ORIENTED_EDGE ( 'NONE', *, *, #147, .F. ) ;
#21 = DIRECTION ( 'NONE',  ( 1.000000000000000000, 0.000000000000000000, 0.000000000000000000 ) ) ;
#22 = FACE_OUTER_BOUND ( 'NONE', #330, .T. ) ;
#23 = CALENDAR_DATE ( 2024, 13, 12 ) ;
#24 = DIRECTION ( 'NONE',  ( 1.000000000000000000, 0.000000000000000000, 0.000000000000000000 ) ) ;
#25 = EDGE_CURVE ( 'NONE', #316, #148, #132, .T. ) ;
#26 = DIRECTION ( 'NONE',  ( 0.000000000000000000, 0.000000000000000000, 1.000000000000000000 ) ) ;
#27 = DIRECTION ( 'NONE',  ( -0.7071067811865425767, 0.000000000000000000, 0.7071067811865525687 ) ) ;
#28 = AXIS2_PLACEMENT_3D ( 'NONE', #209, #207, #235 ) ;
#29 = LINE ( 'NONE', #60, #46 ) ;
#30 = ORIENTED_EDGE ( 'NONE', *, *, #25, .F. ) ;
#31 = ORIENTED_EDGE ( 'NONE', *, *, #306, .F. ) ;
#32 = AXIS2_PLACEMENT_3D ( 'NONE', #211, #50, #322 ) ;
#33 = CIRCLE ( 'NONE', #279, 33.53000000000000114 ) ;
#34 = EDGE_CURVE ( 'NONE', #8, #201, #308, .T. ) ;
#35 = VERTEX_POINT ( 'NONE', #340 ) ;
#36 = VERTEX_POINT ( 'NONE', #177 ) ;
#37 = DIRECTION ( 'NONE',  ( 1.000000000000000000, 0.000000000000000000, 0.000000000000000000 ) ) ;
#38 = AXIS2_PLACEMENT_3D ( 'NONE', #321, #155, #216 ) ;
#39 = VERTEX_POINT ( 'NONE', #57 ) ;
#40 = DATE_TIME_ROLE ( 'creation_date' ) ;
#41 = ORIENTED_EDGE ( 'NONE', *, *, #34, .T. ) ;
#42 = DIRECTION ( 'NONE',  ( 0.000000000000000000, 0.000000000000000000, 1.000000000000000000 ) ) ;
#43 = PERSON_AND_ORGANIZATION_ROLE ( 'classification_officer' ) ;
#44 = DIRECTION ( 'NONE',  ( 0.000000000000000000, 0.000000000000000000, -1.000000000000000000 ) ) ;
#45 = AXIS2_PLACEMENT_3D ( 'NONE', #11, #317, #222 ) ;
#46 = VECTOR ( 'NONE', #193, 1000.000000000000000 ) ;
#47 = CALENDAR_DATE ( 2024, 13, 12 ) ;
#48 = PRODUCT_DEFINITION ( 'UNKNOWN', '', #158, #336 ) ;
#49 = CARTESIAN_POINT ( 'NONE',  ( 0.000000000000000000, 0.000000000000000000, 0.000000000000000000 ) ) ;
#50 = DIRECTION ( 'NONE',  ( 1.000000000000000000, 0.000000000000000000, 0.000000000000000000 ) ) ;
#51 = FACE_OUTER_BOUND ( 'NONE', #200, .T. ) ;
#52 = CC_DESIGN_PERSON_AND_ORGANIZATION_ASSIGNMENT ( #124, #259, ( #280 ) ) ;
#53 = CC_DESIGN_APPROVAL ( #329, ( #158 ) ) ;
#54 = DIRECTION ( 'NONE',  ( -1.000000000000000000, 0.000000000000000000, 0.000000000000000000 ) ) ;
#55 = DIRECTION ( 'NONE',  ( 1.000000000000000000, 0.000000000000000000, 0.000000000000000000 ) ) ;
#56 = CARTESIAN_POINT ( 'NONE',  ( 13.00000000000000000, 0.000000000000000000, 33.53000000000000114 ) ) ;
#57 = CARTESIAN_POINT ( 'NONE',  ( 13.00000000000000000, 3.670266457044617250E-15, -29.96999999999999886 ) ) ;
#58 = EDGE_CURVE ( 'NONE', #316, #201, #168, .T. ) ;
#59 = AXIS2_PLACEMENT_3D ( 'NONE', #347, #24, #103 ) ;
#60 = CARTESIAN_POINT ( 'NONE',  ( 13.00000000000000000, 0.000000000000000000, 29.96999999999999886 ) ) ;
#61 = ORIENTED_EDGE ( 'NONE', *, *, #121, .F. ) ;
#62 = APPLICATION_PROTOCOL_DEFINITION ( 'international standard', 'config_control_design', 1994, #189 ) ;
#63 = DIRECTION ( 'NONE',  ( -1.000000000000000000, -0.000000000000000000, -0.000000000000000000 ) ) ;
#64 = CC_DESIGN_PERSON_AND_ORGANIZATION_ASSIGNMENT ( #136, #294, ( #48 ) ) ;
#65 = ORIENTED_EDGE ( 'NONE', *, *, #131, .F. ) ;
#66 = PERSON_AND_ORGANIZATION_ROLE ( 'creator' ) ;
#67 = CIRCLE ( 'NONE', #88, 30.46999999999998110 ) ;
#68 = ORIENTED_EDGE ( 'NONE', *, *, #109, .T. ) ;
#69 = CARTESIAN_POINT ( 'NONE',  ( 0.000000000000000000, 0.000000000000000000, 0.000000000000000000 ) ) ;
#70 = PERSON_AND_ORGANIZATION_ROLE ( 'design_supplier' ) ;
#71 = DIRECTION ( 'NONE',  ( 0.000000000000000000, 0.000000000000000000, 1.000000000000000000 ) ) ;
#72 = CYLINDRICAL_SURFACE ( 'NONE', #81, 33.53000000000000114 ) ;
#73 = SECURITY_CLASSIFICATION ( '', '', #297 ) ;
#74 = COORDINATED_UNIVERSAL_TIME_OFFSET ( 1, 0, .AHEAD. ) ;
#75 = DIRECTION ( 'NONE',  ( 1.000000000000000000, 0.000000000000000000, 0.000000000000000000 ) ) ;
#76 = ORIENTED_EDGE ( 'NONE', *, *, #343, .F. ) ;
#77 = ADVANCED_FACE ( 'NONE', ( #256 ), #269, .T. ) ;
#78 = CARTESIAN_POINT ( 'NONE',  ( 13.00000000000000000, 4.045008377583714439E-15, -33.03000000000005087 ) ) ;
#79 = DIRECTION ( 'NONE',  ( 0.000000000000000000, 0.000000000000000000, 1.000000000000000000 ) ) ;
#80 = CIRCLE ( 'NONE', #38, 33.53000000000000114 ) ;
#81 = AXIS2_PLACEMENT_3D ( 'NONE', #215, #344, #71 ) ;
#82 = AXIS2_PLACEMENT_3D ( 'NONE', #122, #314, #198 ) ;
#83 = CARTESIAN_POINT ( 'NONE',  ( 13.00000000000000000, 0.000000000000000000, 0.000000000000000000 ) ) ;
#84 = ORIENTED_EDGE ( 'NONE', *, *, #343, .T. ) ;
#85 = CC_DESIGN_DATE_AND_TIME_ASSIGNMENT ( #342, #40, ( #48 ) ) ;
#86 = ORIENTED_EDGE ( 'NONE', *, *, #262, .T. ) ;
#87 = ORIENTED_EDGE ( 'NONE', *, *, #179, .F. ) ;
#88 = AXIS2_PLACEMENT_3D ( 'NONE', #239, #75, #188 ) ;
#89 = APPROVAL_ROLE ( '' ) ;
#90 = LOCAL_TIME ( 0, 51, 56.00000000000000000, #270 ) ;
#91 = CARTESIAN_POINT ( 'NONE',  ( 13.00000000000000000, 0.000000000000000000, 0.000000000000000000 ) ) ;
#92 = ADVANCED_FACE ( 'NONE', ( #4, #300 ), #137, .F. ) ;
#93 =( GEOMETRIC_REPRESENTATION_CONTEXT ( 3 ) GLOBAL_UNCERTAINTY_ASSIGNED_CONTEXT ( ( #129 ) ) GLOBAL_UNIT_ASSIGNED_CONTEXT ( ( #331, #145, #176 ) ) REPRESENTATION_CONTEXT ( 'NONE', 'WORKASPACE' ) );
#94 = ORIENTED_EDGE ( 'NONE', *, *, #339, .T. ) ;
#95 = ADVANCED_FACE ( 'NONE', ( #105 ), #144, .F. ) ;
#96 = ORIENTED_EDGE ( 'NONE', *, *, #169, .T. ) ;
#97 = SHAPE_DEFINITION_REPRESENTATION ( #191, #119 ) ;
#98 = CYLINDRICAL_SURFACE ( 'NONE', #260, 29.96999999999999886 ) ;
#99 = CARTESIAN_POINT ( 'NONE',  ( 13.00000000000000000, 0.000000000000000000, 0.000000000000000000 ) ) ;
#100 = VECTOR ( 'NONE', #253, 1000.000000000000000 ) ;
#101 = PERSON_AND_ORGANIZATION ( #311, #153 ) ;
#102 = EDGE_CURVE ( 'NONE', #249, #123, #152, .T. ) ;
#103 = DIRECTION ( 'NONE',  ( 0.000000000000000000, 0.000000000000000000, -1.000000000000000000 ) ) ;
#104 = APPROVAL_DATE_TIME ( #205, #274 ) ;
#105 = FACE_OUTER_BOUND ( 'NONE', #141, .T. ) ;
#106 = DATE_AND_TIME ( #47, #238 ) ;
#107 = CARTESIAN_POINT ( 'NONE',  ( 0.000000000000000000, 0.000000000000000000, 0.000000000000000000 ) ) ;
#108 = VECTOR ( 'NONE', #146, 1000.000000000000114 ) ;
#109 = EDGE_CURVE ( 'NONE', #249, #285, #243, .T. ) ;
#110 = LINE ( 'NONE', #186, #286 ) ;
#111 = DIRECTION ( 'NONE',  ( 0.000000000000000000, 0.000000000000000000, 1.000000000000000000 ) ) ;
#112 = CARTESIAN_POINT ( 'NONE',  ( 12.50000000000005507, 0.000000000000000000, 0.000000000000000000 ) ) ;
#113 = LOCAL_TIME ( 0, 51, 56.00000000000000000, #160 ) ;
#114 = EDGE_LOOP ( 'NONE', ( #312, #86, #84, #282 ) ) ;
#115 = LINE ( 'NONE', #335, #328 ) ;
#116 = ADVANCED_FACE ( 'NONE', ( #22 ), #72, .T. ) ;
#117 = ORIENTED_EDGE ( 'NONE', *, *, #131, .T. ) ;
#118 = FACE_OUTER_BOUND ( 'NONE', #17, .T. ) ;
#119 = ADVANCED_BREP_SHAPE_REPRESENTATION ( 'bague roulement', ( #251, #82 ), #93 ) ;
#120 = ORIENTED_EDGE ( 'NONE', *, *, #179, .T. ) ;
#121 = EDGE_CURVE ( 'NONE', #201, #8, #67, .T. ) ;
#122 = CARTESIAN_POINT ( 'NONE',  ( 0.000000000000000000, 0.000000000000000000, 0.000000000000000000 ) ) ;
#123 = VERTEX_POINT ( 'NONE', #183 ) ;
#124 = PERSON_AND_ORGANIZATION ( #311, #153 ) ;
#125 = CARTESIAN_POINT ( 'NONE',  ( 12.50000000000005507, 0.000000000000000000, 33.53000000000000114 ) ) ;
#126 = DATE_TIME_ROLE ( 'classification_date' ) ;
#127 = CARTESIAN_POINT ( 'NONE',  ( 13.00000000000000000, 0.000000000000000000, 0.000000000000000000 ) ) ;
#128 = APPROVAL_DATE_TIME ( #106, #263 ) ;
#129 = UNCERTAINTY_MEASURE_WITH_UNIT (LENGTH_MEASURE( 1.000000000000000082E-05 ), #331, 'distance_accuracy_value', 'NONE');
#130 = FACE_OUTER_BOUND ( 'NONE', #204, .T. ) ;
#131 = EDGE_CURVE ( 'NONE', #39, #35, #2, .T. ) ;
#132 = CIRCLE ( 'NONE', #45, 29.96999999999999886 ) ;
#133 = DIRECTION ( 'NONE',  ( -1.000000000000000000, -0.000000000000000000, -0.000000000000000000 ) ) ;
#134 = COORDINATED_UNIVERSAL_TIME_OFFSET ( 1, 0, .AHEAD. ) ;
#135 = LINE ( 'NONE', #241, #196 ) ;
#136 = PERSON_AND_ORGANIZATION ( #311, #153 ) ;
#137 = PLANE ( 'NONE',  #293 ) ;
#138 = DIRECTION ( 'NONE',  ( 1.000000000000000000, 0.000000000000000000, 0.000000000000000000 ) ) ;
#139 = AXIS2_PLACEMENT_3D ( 'NONE', #91, #333, #79 ) ;
#140 = DIRECTION ( 'NONE',  ( -1.000000000000000000, 0.000000000000000000, 0.000000000000000000 ) ) ;
#141 = EDGE_LOOP ( 'NONE', ( #250, #30, #166, #221 ) ) ;
#142 = EDGE_LOOP ( 'NONE', ( #192, #65 ) ) ;
#143 = DIRECTION ( 'NONE',  ( 0.000000000000000000, 0.000000000000000000, -1.000000000000000000 ) ) ;
#144 = CONICAL_SURFACE ( 'NONE', #337, 30.46999999999998110, 0.7853981633974517207 ) ;
#145 =( NAMED_UNIT ( * ) PLANE_ANGLE_UNIT ( ) SI_UNIT ( $, .RADIAN. ) );
#146 = DIRECTION ( 'NONE',  ( -0.7071067811865451302, 0.000000000000000000, 0.7071067811865500152 ) ) ;
#147 = EDGE_CURVE ( 'NONE', #36, #9, #80, .T. ) ;
#148 = VERTEX_POINT ( 'NONE', #182 ) ;
#149 = CC_DESIGN_APPROVAL ( #274, ( #73 ) ) ;
#150 = EDGE_CURVE ( 'NONE', #39, #148, #110, .T. ) ;
#151 = DIRECTION ( 'NONE',  ( 0.000000000000000000, 0.000000000000000000, -1.000000000000000000 ) ) ;
#152 = CIRCLE ( 'NONE', #32, 33.03000000000005087 ) ;
#153 = ORGANIZATION ( 'UNSPECIFIED', 'UNSPECIFIED', '' ) ;
#154 = ORIENTED_EDGE ( 'NONE', *, *, #102, .T. ) ;
#155 = DIRECTION ( 'NONE',  ( 1.000000000000000000, 0.000000000000000000, 0.000000000000000000 ) ) ;
#156 = CARTESIAN_POINT ( 'NONE',  ( 0.000000000000000000, 0.000000000000000000, 30.46999999999998110 ) ) ;
#157 = CALENDAR_DATE ( 2024, 13, 12 ) ;
#158 = PRODUCT_DEFINITION_FORMATION_WITH_SPECIFIED_SOURCE ( 'ANY', '', #280, .NOT_KNOWN. ) ;
#159 = DIRECTION ( 'NONE',  ( -1.000000000000000000, -0.000000000000000000, -0.000000000000000000 ) ) ;
#160 = COORDINATED_UNIVERSAL_TIME_OFFSET ( 1, 0, .AHEAD. ) ;
#161 = DIRECTION ( 'NONE',  ( -0.7071067811865425767, 8.659560562354994488E-17, -0.7071067811865525687 ) ) ;
#162 = DIRECTION ( 'NONE',  ( -1.000000000000000000, -0.000000000000000000, -0.000000000000000000 ) ) ;
#163 = ORIENTED_EDGE ( 'NONE', *, *, #121, .T. ) ;
#164 = DIRECTION ( 'NONE',  ( -1.000000000000000000, 0.000000000000000000, 0.000000000000000000 ) ) ;
#165 = ADVANCED_FACE ( 'NONE', ( #130 ), #273, .F. ) ;
#166 = ORIENTED_EDGE ( 'NONE', *, *, #58, .T. ) ;
#167 = DIRECTION ( 'NONE',  ( 0.000000000000000000, 0.000000000000000000, -1.000000000000000000 ) ) ;
#168 = LINE ( 'NONE', #281, #108 ) ;
#169 = EDGE_CURVE ( 'NONE', #123, #3, #292, .T. ) ;
#170 = ORIENTED_EDGE ( 'NONE', *, *, #306, .T. ) ;
#171 = AXIS2_PLACEMENT_3D ( 'NONE', #99, #133, #26 ) ;
#172 = AXIS2_PLACEMENT_3D ( 'NONE', #112, #164, #278 ) ;
#173 = APPLICATION_PROTOCOL_DEFINITION ( 'international standard', 'config_control_design', 1994, #226 ) ;
#174 = EDGE_CURVE ( 'NONE', #123, #249, #224, .T. ) ;
#175 = DIRECTION ( 'NONE',  ( 0.000000000000000000, 0.000000000000000000, 1.000000000000000000 ) ) ;
#176 =( NAMED_UNIT ( * ) SI_UNIT ( $, .STERADIAN. ) SOLID_ANGLE_UNIT ( ) );
#177 = CARTESIAN_POINT ( 'NONE',  ( 0.000000000000000000, 0.000000000000000000, 33.53000000000000114 ) ) ;
#178 = VECTOR ( 'NONE', #27, 999.9999999999998863 ) ;
#179 = EDGE_CURVE ( 'NONE', #148, #316, #275, .T. ) ;
#180 = EDGE_LOOP ( 'NONE', ( #20, #76 ) ) ;
#181 = DIRECTION ( 'NONE',  ( -1.000000000000000000, -0.000000000000000000, -0.000000000000000000 ) ) ;
#182 = CARTESIAN_POINT ( 'NONE',  ( 0.4999999999999761302, 3.670266457044617250E-15, -29.96999999999999886 ) ) ;
#183 = CARTESIAN_POINT ( 'NONE',  ( 13.00000000000000000, 0.000000000000000000, 33.03000000000005087 ) ) ;
#184 = APPROVAL_ROLE ( '' ) ;
#185 = PRODUCT_RELATED_PRODUCT_CATEGORY ( 'detail', '', ( #280 ) ) ;
#186 = CARTESIAN_POINT ( 'NONE',  ( 13.00000000000000000, 3.670266457044617250E-15, -29.96999999999999886 ) ) ;
#187 = ORIENTED_EDGE ( 'NONE', *, *, #240, .T. ) ;
#188 = DIRECTION ( 'NONE',  ( 0.000000000000000000, 0.000000000000000000, -1.000000000000000000 ) ) ;
#189 = APPLICATION_CONTEXT ( 'configuration controlled 3d designs of mechanical parts and assemblies' ) ;
#190 = DIRECTION ( 'NONE',  ( 0.000000000000000000, 0.000000000000000000, -1.000000000000000000 ) ) ;
#191 = PRODUCT_DEFINITION_SHAPE ( 'NONE', 'NONE',  #48 ) ;
#192 = ORIENTED_EDGE ( 'NONE', *, *, #203, .F. ) ;
#193 = DIRECTION ( 'NONE',  ( -1.000000000000000000, -0.000000000000000000, -0.000000000000000000 ) ) ;
#194 = ORIENTED_EDGE ( 'NONE', *, *, #150, .F. ) ;
#195 = AXIS2_PLACEMENT_3D ( 'NONE', #299, #21, #296 ) ;
#196 = VECTOR ( 'NONE', #348, 1000.000000000000114 ) ;
#197 = ORIENTED_EDGE ( 'NONE', *, *, #212, .T. ) ;
#198 = DIRECTION ( 'NONE',  ( 1.000000000000000000, 0.000000000000000000, 0.000000000000000000 ) ) ;
#199 = ADVANCED_FACE ( 'NONE', ( #245 ), #301, .F. ) ;
#200 = EDGE_LOOP ( 'NONE', ( #332, #68, #267, #247 ) ) ;
#201 = VERTEX_POINT ( 'NONE', #156 ) ;
#202 = APPROVAL_STATUS ( 'not_yet_approved' ) ;
#203 = EDGE_CURVE ( 'NONE', #35, #39, #14, .T. ) ;
#204 = EDGE_LOOP ( 'NONE', ( #338, #304, #120, #228 ) ) ;
#205 = DATE_AND_TIME ( #157, #295 ) ;
#206 = APPROVAL_PERSON_ORGANIZATION ( #13, #263, #89 ) ;
#207 = DIRECTION ( 'NONE',  ( -1.000000000000000000, -0.000000000000000000, -0.000000000000000000 ) ) ;
#208 = DATE_AND_TIME ( #242, #90 ) ;
#209 = CARTESIAN_POINT ( 'NONE',  ( 13.00000000000000000, 0.000000000000000000, 0.000000000000000000 ) ) ;
#210 = DATE_AND_TIME ( #23, #266 ) ;
#211 = CARTESIAN_POINT ( 'NONE',  ( 13.00000000000000000, 0.000000000000000000, 0.000000000000000000 ) ) ;
#212 = EDGE_CURVE ( 'NONE', #148, #8, #135, .T. ) ;
#213 = APPROVAL_STATUS ( 'not_yet_approved' ) ;
#214 = AXIS2_PLACEMENT_3D ( 'NONE', #6, #309, #143 ) ;
#215 = CARTESIAN_POINT ( 'NONE',  ( 13.00000000000000000, 0.000000000000000000, 0.000000000000000000 ) ) ;
#216 = DIRECTION ( 'NONE',  ( 0.000000000000000000, 0.000000000000000000, -1.000000000000000000 ) ) ;
#217 = ORIENTED_EDGE ( 'NONE', *, *, #174, .F. ) ;
#218 = CARTESIAN_POINT ( 'NONE',  ( 12.50000000000005507, 0.000000000000000000, 0.000000000000000000 ) ) ;
#219 = AXIS2_PLACEMENT_3D ( 'NONE', #305, #55, #167 ) ;
#220 = DIRECTION ( 'NONE',  ( -1.000000000000000000, -0.000000000000000000, -0.000000000000000000 ) ) ;
#221 = ORIENTED_EDGE ( 'NONE', *, *, #34, .F. ) ;
#222 = DIRECTION ( 'NONE',  ( 0.000000000000000000, 0.000000000000000000, -1.000000000000000000 ) ) ;
#223 = CARTESIAN_POINT ( 'NONE',  ( 12.50000000000005507, 4.106240717541074913E-15, -33.53000000000000114 ) ) ;
#224 = CIRCLE ( 'NONE', #237, 33.03000000000005087 ) ;
#225 = CONICAL_SURFACE ( 'NONE', #139, 33.03000000000005087, 0.7853981633974552734 ) ;
#226 = APPLICATION_CONTEXT ( 'configuration controlled 3d designs of mechanical parts and assemblies' ) ;
#227 = CC_DESIGN_PERSON_AND_ORGANIZATION_ASSIGNMENT ( #291, #70, ( #158 ) ) ;
#228 = ORIENTED_EDGE ( 'NONE', *, *, #339, .F. ) ;
#229 = APPROVAL_STATUS ( 'not_yet_approved' ) ;
#230 = CARTESIAN_POINT ( 'NONE',  ( 0.000000000000000000, 3.731498797001982457E-15, -30.46999999999998110 ) ) ;
#231 = CC_DESIGN_PERSON_AND_ORGANIZATION_ASSIGNMENT ( #349, #66, ( #158 ) ) ;
#232 = PERSON_AND_ORGANIZATION ( #311, #153 ) ;
#233 = ORIENTED_EDGE ( 'NONE', *, *, #174, .T. ) ;
#234 = APPROVAL_ROLE ( '' ) ;
#235 = DIRECTION ( 'NONE',  ( 0.000000000000000000, 0.000000000000000000, 1.000000000000000000 ) ) ;
#236 = AXIS2_PLACEMENT_3D ( 'NONE', #69, #181, #42 ) ;
#237 = AXIS2_PLACEMENT_3D ( 'NONE', #320, #138, #44 ) ;
#238 = LOCAL_TIME ( 0, 51, 56.00000000000000000, #287 ) ;
#239 = CARTESIAN_POINT ( 'NONE',  ( 0.000000000000000000, 0.000000000000000000, 0.000000000000000000 ) ) ;
#240 = EDGE_CURVE ( 'NONE', #3, #36, #7, .T. ) ;
#241 = CARTESIAN_POINT ( 'NONE',  ( 0.000000000000000000, 3.731498797001982457E-15, -30.46999999999998110 ) ) ;
#242 = CALENDAR_DATE ( 2024, 13, 12 ) ;
#243 = LINE ( 'NONE', #78, #244 ) ;
#244 = VECTOR ( 'NONE', #161, 999.9999999999998863 ) ;
#245 = FACE_OUTER_BOUND ( 'NONE', #327, .T. ) ;
#246 = ADVANCED_FACE ( 'NONE', ( #118, #276 ), #248, .T. ) ;
#247 = ORIENTED_EDGE ( 'NONE', *, *, #169, .F. ) ;
#248 = PLANE ( 'NONE',  #214 ) ;
#249 = VERTEX_POINT ( 'NONE', #326 ) ;
#250 = ORIENTED_EDGE ( 'NONE', *, *, #212, .F. ) ;
#251 = MANIFOLD_SOLID_BREP ( 'Chanfrein1', #265 ) ;
#252 = AXIS2_PLACEMENT_3D ( 'NONE', #284, #37, #151 ) ;
#253 = DIRECTION ( 'NONE',  ( -1.000000000000000000, -0.000000000000000000, -0.000000000000000000 ) ) ;
#254 = APPROVAL_PERSON_ORGANIZATION ( #101, #329, #184 ) ;
#255 = EDGE_LOOP ( 'NONE', ( #194, #117, #94, #288 ) ) ;
#256 = FACE_OUTER_BOUND ( 'NONE', #114, .T. ) ;
#257 = FACE_OUTER_BOUND ( 'NONE', #12, .T. ) ;
#258 = ORIENTED_EDGE ( 'NONE', *, *, #109, .F. ) ;
#259 = PERSON_AND_ORGANIZATION_ROLE ( 'design_owner' ) ;
#260 = AXIS2_PLACEMENT_3D ( 'NONE', #127, #63, #175 ) ;
#261 = AXIS2_PLACEMENT_3D ( 'NONE', #83, #54, #111 ) ;
#262 = EDGE_CURVE ( 'NONE', #285, #9, #115, .T. ) ;
#263 = APPROVAL ( #229, 'UNSPECIFIED' ) ;
#264 = EDGE_LOOP ( 'NONE', ( #163, #41 ) ) ;
#265 = CLOSED_SHELL ( 'NONE', ( #290, #199, #165, #77, #246, #92, #116, #16, #95, #277 ) ) ;
#266 = LOCAL_TIME ( 0, 51, 56.00000000000000000, #74 ) ;
#267 = ORIENTED_EDGE ( 'NONE', *, *, #298, .F. ) ;
#268 = DIRECTION ( 'NONE',  ( 0.000000000000000000, 0.000000000000000000, 1.000000000000000000 ) ) ;
#269 = CYLINDRICAL_SURFACE ( 'NONE', #171, 33.53000000000000114 ) ;
#270 = COORDINATED_UNIVERSAL_TIME_OFFSET ( 1, 0, .AHEAD. ) ;
#271 = DIRECTION ( 'NONE',  ( 0.000000000000000000, 0.000000000000000000, -1.000000000000000000 ) ) ;
#272 = DIRECTION ( 'NONE',  ( 0.000000000000000000, 0.000000000000000000, -1.000000000000000000 ) ) ;
#273 = CYLINDRICAL_SURFACE ( 'NONE', #28, 29.96999999999999886 ) ;
#274 = APPROVAL ( #202, 'UNSPECIFIED' ) ;
#275 = CIRCLE ( 'NONE', #318, 29.96999999999999886 ) ;
#276 = FACE_BOUND ( 'NONE', #142, .T. ) ;
#277 = ADVANCED_FACE ( 'NONE', ( #257 ), #225, .T. ) ;
#278 = DIRECTION ( 'NONE',  ( 0.000000000000000000, 0.000000000000000000, -1.000000000000000000 ) ) ;
#279 = AXIS2_PLACEMENT_3D ( 'NONE', #218, #140, #190 ) ;
#280 = PRODUCT ( 'bague roulement', 'bague roulement', '', ( #15 ) ) ;
#281 = CARTESIAN_POINT ( 'NONE',  ( 0.000000000000000000, 0.000000000000000000, 30.46999999999998110 ) ) ;
#282 = ORIENTED_EDGE ( 'NONE', *, *, #240, .F. ) ;
#283 = CC_DESIGN_PERSON_AND_ORGANIZATION_ASSIGNMENT ( #19, #43, ( #73 ) ) ;
#284 = CARTESIAN_POINT ( 'NONE',  ( 0.000000000000000000, 0.000000000000000000, 0.000000000000000000 ) ) ;
#285 = VERTEX_POINT ( 'NONE', #223 ) ;
#286 = VECTOR ( 'NONE', #162, 1000.000000000000000 ) ;
#287 = COORDINATED_UNIVERSAL_TIME_OFFSET ( 1, 0, .AHEAD. ) ;
#288 = ORIENTED_EDGE ( 'NONE', *, *, #25, .T. ) ;
#289 = CARTESIAN_POINT ( 'NONE',  ( 0.4999999999999761302, 0.000000000000000000, 0.000000000000000000 ) ) ;
#290 = ADVANCED_FACE ( 'NONE', ( #51 ), #345, .T. ) ;
#291 = PERSON_AND_ORGANIZATION ( #311, #153 ) ;
#292 = LINE ( 'NONE', #325, #178 ) ;
#293 = AXIS2_PLACEMENT_3D ( 'NONE', #49, #1, #272 ) ;
#294 = PERSON_AND_ORGANIZATION_ROLE ( 'creator' ) ;
#295 = LOCAL_TIME ( 0, 51, 56.00000000000000000, #134 ) ;
#296 = DIRECTION ( 'NONE',  ( 0.000000000000000000, 0.000000000000000000, -1.000000000000000000 ) ) ;
#297 = SECURITY_CLASSIFICATION_LEVEL ( 'unclassified' ) ;
#298 = EDGE_CURVE ( 'NONE', #3, #285, #18, .T. ) ;
#299 = CARTESIAN_POINT ( 'NONE',  ( 13.00000000000000000, 0.000000000000000000, 0.000000000000000000 ) ) ;
#300 = FACE_OUTER_BOUND ( 'NONE', #180, .T. ) ;
#301 = CONICAL_SURFACE ( 'NONE', #236, 30.46999999999998110, 0.7853981633974517207 ) ;
#302 = APPROVAL_PERSON_ORGANIZATION ( #232, #274, #234 ) ;
#303 = CARTESIAN_POINT ( 'NONE',  ( 0.4999999999999761302, 0.000000000000000000, 29.96999999999999886 ) ) ;
#304 = ORIENTED_EDGE ( 'NONE', *, *, #150, .T. ) ;
#305 = CARTESIAN_POINT ( 'NONE',  ( 0.000000000000000000, 0.000000000000000000, 0.000000000000000000 ) ) ;
#306 = EDGE_CURVE ( 'NONE', #285, #3, #33, .T. ) ;
#307 = ORIENTED_EDGE ( 'NONE', *, *, #58, .F. ) ;
#308 = CIRCLE ( 'NONE', #252, 30.46999999999998110 ) ;
#309 = DIRECTION ( 'NONE',  ( 1.000000000000000000, 0.000000000000000000, 0.000000000000000000 ) ) ;
#310 = CC_DESIGN_SECURITY_CLASSIFICATION ( #73, ( #158 ) ) ;
#311 = PERSON ( 'UNSPECIFIED', 'UNSPECIFIED', 'UNSPECIFIED', ('UNSPECIFIED'), ('UNSPECIFIED'), ('UNSPECIFIED') ) ;
#312 = ORIENTED_EDGE ( 'NONE', *, *, #298, .T. ) ;
#313 = CIRCLE ( 'NONE', #219, 33.53000000000000114 ) ;
#314 = DIRECTION ( 'NONE',  ( 0.000000000000000000, 0.000000000000000000, 1.000000000000000000 ) ) ;
#315 = FACE_OUTER_BOUND ( 'NONE', #255, .T. ) ;
#316 = VERTEX_POINT ( 'NONE', #303 ) ;
#317 = DIRECTION ( 'NONE',  ( -1.000000000000000000, -0.000000000000000000, -0.000000000000000000 ) ) ;
#318 = AXIS2_PLACEMENT_3D ( 'NONE', #289, #159, #271 ) ;
#319 = CC_DESIGN_APPROVAL ( #263, ( #48 ) ) ;
#320 = CARTESIAN_POINT ( 'NONE',  ( 13.00000000000000000, 0.000000000000000000, 0.000000000000000000 ) ) ;
#321 = CARTESIAN_POINT ( 'NONE',  ( 0.000000000000000000, 0.000000000000000000, 0.000000000000000000 ) ) ;
#322 = DIRECTION ( 'NONE',  ( 0.000000000000000000, 0.000000000000000000, -1.000000000000000000 ) ) ;
#323 = APPROVAL_DATE_TIME ( #208, #329 ) ;
#324 = DIRECTION ( 'NONE',  ( -1.000000000000000000, -0.000000000000000000, -0.000000000000000000 ) ) ;
#325 = CARTESIAN_POINT ( 'NONE',  ( 13.00000000000000000, 0.000000000000000000, 33.03000000000005087 ) ) ;
#326 = CARTESIAN_POINT ( 'NONE',  ( 13.00000000000000000, 4.075624547562395071E-15, -33.03000000000005087 ) ) ;
#327 = EDGE_LOOP ( 'NONE', ( #87, #197, #61, #307 ) ) ;
#328 = VECTOR ( 'NONE', #220, 1000.000000000000000 ) ;
#329 = APPROVAL ( #213, 'UNSPECIFIED' ) ;
#330 = EDGE_LOOP ( 'NONE', ( #334, #170, #187, #5 ) ) ;
#331 =( LENGTH_UNIT ( ) NAMED_UNIT ( * ) SI_UNIT ( .MILLI., .METRE. ) );
#332 = ORIENTED_EDGE ( 'NONE', *, *, #102, .F. ) ;
#333 = DIRECTION ( 'NONE',  ( -1.000000000000000000, 0.000000000000000000, 0.000000000000000000 ) ) ;
#334 = ORIENTED_EDGE ( 'NONE', *, *, #262, .F. ) ;
#335 = CARTESIAN_POINT ( 'NONE',  ( 13.00000000000000000, 4.106240717541074913E-15, -33.53000000000000114 ) ) ;
#336 = DESIGN_CONTEXT ( 'detailed design', #226, 'design' ) ;
#337 = AXIS2_PLACEMENT_3D ( 'NONE', #107, #324, #268 ) ;
#338 = ORIENTED_EDGE ( 'NONE', *, *, #203, .T. ) ;
#339 = EDGE_CURVE ( 'NONE', #35, #316, #29, .T. ) ;
#340 = CARTESIAN_POINT ( 'NONE',  ( 13.00000000000000000, 0.000000000000000000, 29.96999999999999886 ) ) ;
#341 = CARTESIAN_POINT ( 'NONE',  ( 0.000000000000000000, 4.106240717541074913E-15, -33.53000000000000114 ) ) ;
#342 = DATE_AND_TIME ( #346, #113 ) ;
#343 = EDGE_CURVE ( 'NONE', #9, #36, #313, .T. ) ;
#344 = DIRECTION ( 'NONE',  ( -1.000000000000000000, -0.000000000000000000, -0.000000000000000000 ) ) ;
#345 = CONICAL_SURFACE ( 'NONE', #261, 33.03000000000005087, 0.7853981633974552734 ) ;
#346 = CALENDAR_DATE ( 2024, 13, 12 ) ;
#347 = CARTESIAN_POINT ( 'NONE',  ( 13.00000000000000000, 0.000000000000000000, 0.000000000000000000 ) ) ;
#348 = DIRECTION ( 'NONE',  ( -0.7071067811865451302, 8.659560562354963673E-17, -0.7071067811865500152 ) ) ;
#349 = PERSON_AND_ORGANIZATION ( #311, #153 ) ;
ENDSEC;
END-ISO-10303-21;
