ISO-10303-21;
HEADER;
/* Generated by software containing ST-Developer
 * from STEP Tools, Inc. (www.steptools.com) 
 */

FILE_DESCRIPTION(
/* description */ ('',
'CAx-IF Rec.Pracs.---Representation and Presentation of Product Manufa
cturing Information (PMI)---4.0---2014-10-13'),
/* implementation_level */ '2;1');

FILE_NAME(
/* name */ 'Piece 2 M42 v2.step',
/* time_stamp */ '2024-11-26T19:24:57+01:00',
/* author */ (''),
/* organization */ (''),
/* preprocessor_version */ 'ST-DEVELOPER v20',
/* originating_system */ 'Autodesk Translation Framework v13.20.0.188',

/* authorisation */ '');

FILE_SCHEMA (('AP242_MANAGED_MODEL_BASED_3D_ENGINEERING_MIM_LF { 1 0 10303 442 1 1 4 }'));
ENDSEC;

DATA;
#10=MECHANICAL_DESIGN_GEOMETRIC_PRESENTATION_REPRESENTATION('',(#13),#611);
#11=SHAPE_REPRESENTATION_RELATIONSHIP('SRR','None',#618,#12);
#12=ADVANCED_BREP_SHAPE_REPRESENTATION('',(#14),#610);
#13=STYLED_ITEM('',(#627),#14);
#14=MANIFOLD_SOLID_BREP('Corps1',#347);
#15=FACE_BOUND('',#73,.T.);
#16=FACE_BOUND('',#76,.T.);
#17=FACE_BOUND('',#77,.T.);
#18=FACE_BOUND('',#78,.T.);
#19=FACE_BOUND('',#79,.T.);
#20=FACE_BOUND('',#80,.T.);
#21=FACE_BOUND('',#81,.T.);
#22=FACE_BOUND('',#82,.T.);
#23=FACE_BOUND('',#83,.T.);
#24=FACE_BOUND('',#84,.T.);
#25=FACE_BOUND('',#85,.T.);
#26=FACE_BOUND('',#88,.T.);
#27=FACE_BOUND('',#92,.T.);
#28=FACE_BOUND('',#93,.T.);
#29=FACE_BOUND('',#94,.T.);
#30=FACE_BOUND('',#95,.T.);
#31=FACE_BOUND('',#96,.T.);
#32=FACE_BOUND('',#97,.T.);
#33=FACE_BOUND('',#98,.T.);
#34=FACE_BOUND('',#99,.T.);
#35=FACE_BOUND('',#100,.T.);
#36=FACE_BOUND('',#101,.T.);
#37=FACE_BOUND('',#103,.T.);
#38=PLANE('',#391);
#39=PLANE('',#395);
#40=PLANE('',#400);
#41=PLANE('',#406);
#42=PLANE('',#407);
#43=FACE_OUTER_BOUND('',#62,.T.);
#44=FACE_OUTER_BOUND('',#63,.T.);
#45=FACE_OUTER_BOUND('',#64,.T.);
#46=FACE_OUTER_BOUND('',#65,.T.);
#47=FACE_OUTER_BOUND('',#66,.T.);
#48=FACE_OUTER_BOUND('',#67,.T.);
#49=FACE_OUTER_BOUND('',#68,.T.);
#50=FACE_OUTER_BOUND('',#69,.T.);
#51=FACE_OUTER_BOUND('',#70,.T.);
#52=FACE_OUTER_BOUND('',#71,.T.);
#53=FACE_OUTER_BOUND('',#72,.T.);
#54=FACE_OUTER_BOUND('',#74,.T.);
#55=FACE_OUTER_BOUND('',#75,.T.);
#56=FACE_OUTER_BOUND('',#86,.T.);
#57=FACE_OUTER_BOUND('',#87,.T.);
#58=FACE_OUTER_BOUND('',#89,.T.);
#59=FACE_OUTER_BOUND('',#90,.T.);
#60=FACE_OUTER_BOUND('',#91,.T.);
#61=FACE_OUTER_BOUND('',#102,.T.);
#62=EDGE_LOOP('',(#230,#231,#232,#233));
#63=EDGE_LOOP('',(#234,#235,#236,#237));
#64=EDGE_LOOP('',(#238,#239,#240,#241));
#65=EDGE_LOOP('',(#242,#243,#244,#245));
#66=EDGE_LOOP('',(#246,#247,#248,#249));
#67=EDGE_LOOP('',(#250,#251,#252,#253));
#68=EDGE_LOOP('',(#254,#255,#256,#257));
#69=EDGE_LOOP('',(#258,#259,#260,#261));
#70=EDGE_LOOP('',(#262,#263,#264,#265));
#71=EDGE_LOOP('',(#266,#267,#268,#269));
#72=EDGE_LOOP('',(#270));
#73=EDGE_LOOP('',(#271));
#74=EDGE_LOOP('',(#272,#273,#274,#275));
#75=EDGE_LOOP('',(#276));
#76=EDGE_LOOP('',(#277));
#77=EDGE_LOOP('',(#278));
#78=EDGE_LOOP('',(#279));
#79=EDGE_LOOP('',(#280));
#80=EDGE_LOOP('',(#281));
#81=EDGE_LOOP('',(#282));
#82=EDGE_LOOP('',(#283));
#83=EDGE_LOOP('',(#284));
#84=EDGE_LOOP('',(#285));
#85=EDGE_LOOP('',(#286));
#86=EDGE_LOOP('',(#287,#288,#289,#290));
#87=EDGE_LOOP('',(#291));
#88=EDGE_LOOP('',(#292));
#89=EDGE_LOOP('',(#293,#294,#295,#296));
#90=EDGE_LOOP('',(#297,#298,#299,#300));
#91=EDGE_LOOP('',(#301));
#92=EDGE_LOOP('',(#302));
#93=EDGE_LOOP('',(#303));
#94=EDGE_LOOP('',(#304));
#95=EDGE_LOOP('',(#305));
#96=EDGE_LOOP('',(#306));
#97=EDGE_LOOP('',(#307));
#98=EDGE_LOOP('',(#308));
#99=EDGE_LOOP('',(#309));
#100=EDGE_LOOP('',(#310));
#101=EDGE_LOOP('',(#311));
#102=EDGE_LOOP('',(#312));
#103=EDGE_LOOP('',(#313));
#104=LINE('',#523,#118);
#105=LINE('',#529,#119);
#106=LINE('',#535,#120);
#107=LINE('',#541,#121);
#108=LINE('',#547,#122);
#109=LINE('',#553,#123);
#110=LINE('',#559,#124);
#111=LINE('',#565,#125);
#112=LINE('',#571,#126);
#113=LINE('',#577,#127);
#114=LINE('',#584,#128);
#115=LINE('',#593,#129);
#116=LINE('',#601,#130);
#117=LINE('',#604,#131);
#118=VECTOR('',#414,1.65);
#119=VECTOR('',#421,1.65);
#120=VECTOR('',#428,1.75);
#121=VECTOR('',#435,1.65);
#122=VECTOR('',#442,1.75);
#123=VECTOR('',#449,1.65);
#124=VECTOR('',#456,1.65);
#125=VECTOR('',#463,1.75);
#126=VECTOR('',#470,1.65);
#127=VECTOR('',#477,24.);
#128=VECTOR('',#486,40.5);
#129=VECTOR('',#497,39.1);
#130=VECTOR('',#508,20.625);
#131=VECTOR('',#511,46.);
#132=CIRCLE('',#362,1.65);
#133=CIRCLE('',#363,1.65);
#134=CIRCLE('',#365,1.65);
#135=CIRCLE('',#366,1.65);
#136=CIRCLE('',#368,1.75);
#137=CIRCLE('',#369,1.75);
#138=CIRCLE('',#371,1.65);
#139=CIRCLE('',#372,1.65);
#140=CIRCLE('',#374,1.75);
#141=CIRCLE('',#375,1.75);
#142=CIRCLE('',#377,1.65);
#143=CIRCLE('',#378,1.65);
#144=CIRCLE('',#380,1.65);
#145=CIRCLE('',#381,1.65);
#146=CIRCLE('',#383,1.75);
#147=CIRCLE('',#384,1.75);
#148=CIRCLE('',#386,1.65);
#149=CIRCLE('',#387,1.65);
#150=CIRCLE('',#389,24.);
#151=CIRCLE('',#390,24.);
#152=CIRCLE('',#392,40.5);
#153=CIRCLE('',#394,40.5);
#154=CIRCLE('',#396,46.);
#155=CIRCLE('',#398,39.1);
#156=CIRCLE('',#399,39.1);
#157=CIRCLE('',#401,20.625);
#158=CIRCLE('',#403,20.625);
#159=CIRCLE('',#405,46.);
#160=VERTEX_POINT('',#520);
#161=VERTEX_POINT('',#522);
#162=VERTEX_POINT('',#526);
#163=VERTEX_POINT('',#528);
#164=VERTEX_POINT('',#532);
#165=VERTEX_POINT('',#534);
#166=VERTEX_POINT('',#538);
#167=VERTEX_POINT('',#540);
#168=VERTEX_POINT('',#544);
#169=VERTEX_POINT('',#546);
#170=VERTEX_POINT('',#550);
#171=VERTEX_POINT('',#552);
#172=VERTEX_POINT('',#556);
#173=VERTEX_POINT('',#558);
#174=VERTEX_POINT('',#562);
#175=VERTEX_POINT('',#564);
#176=VERTEX_POINT('',#568);
#177=VERTEX_POINT('',#570);
#178=VERTEX_POINT('',#574);
#179=VERTEX_POINT('',#576);
#180=VERTEX_POINT('',#580);
#181=VERTEX_POINT('',#583);
#182=VERTEX_POINT('',#587);
#183=VERTEX_POINT('',#590);
#184=VERTEX_POINT('',#592);
#185=VERTEX_POINT('',#596);
#186=VERTEX_POINT('',#599);
#187=VERTEX_POINT('',#603);
#188=EDGE_CURVE('',#160,#160,#132,.T.);
#189=EDGE_CURVE('',#160,#161,#104,.T.);
#190=EDGE_CURVE('',#161,#161,#133,.T.);
#191=EDGE_CURVE('',#162,#162,#134,.T.);
#192=EDGE_CURVE('',#162,#163,#105,.T.);
#193=EDGE_CURVE('',#163,#163,#135,.T.);
#194=EDGE_CURVE('',#164,#164,#136,.T.);
#195=EDGE_CURVE('',#164,#165,#106,.T.);
#196=EDGE_CURVE('',#165,#165,#137,.T.);
#197=EDGE_CURVE('',#166,#166,#138,.T.);
#198=EDGE_CURVE('',#166,#167,#107,.T.);
#199=EDGE_CURVE('',#167,#167,#139,.T.);
#200=EDGE_CURVE('',#168,#168,#140,.T.);
#201=EDGE_CURVE('',#168,#169,#108,.T.);
#202=EDGE_CURVE('',#169,#169,#141,.T.);
#203=EDGE_CURVE('',#170,#170,#142,.T.);
#204=EDGE_CURVE('',#170,#171,#109,.T.);
#205=EDGE_CURVE('',#171,#171,#143,.T.);
#206=EDGE_CURVE('',#172,#172,#144,.T.);
#207=EDGE_CURVE('',#172,#173,#110,.T.);
#208=EDGE_CURVE('',#173,#173,#145,.T.);
#209=EDGE_CURVE('',#174,#174,#146,.T.);
#210=EDGE_CURVE('',#174,#175,#111,.T.);
#211=EDGE_CURVE('',#175,#175,#147,.T.);
#212=EDGE_CURVE('',#176,#176,#148,.T.);
#213=EDGE_CURVE('',#176,#177,#112,.T.);
#214=EDGE_CURVE('',#177,#177,#149,.T.);
#215=EDGE_CURVE('',#178,#178,#150,.T.);
#216=EDGE_CURVE('',#178,#179,#113,.T.);
#217=EDGE_CURVE('',#179,#179,#151,.T.);
#218=EDGE_CURVE('',#180,#180,#152,.T.);
#219=EDGE_CURVE('',#180,#181,#114,.T.);
#220=EDGE_CURVE('',#181,#181,#153,.T.);
#221=EDGE_CURVE('',#182,#182,#154,.T.);
#222=EDGE_CURVE('',#183,#183,#155,.T.);
#223=EDGE_CURVE('',#183,#184,#115,.T.);
#224=EDGE_CURVE('',#184,#184,#156,.T.);
#225=EDGE_CURVE('',#185,#185,#157,.T.);
#226=EDGE_CURVE('',#186,#186,#158,.T.);
#227=EDGE_CURVE('',#186,#185,#116,.T.);
#228=EDGE_CURVE('',#182,#187,#117,.T.);
#229=EDGE_CURVE('',#187,#187,#159,.T.);
#230=ORIENTED_EDGE('',*,*,#188,.F.);
#231=ORIENTED_EDGE('',*,*,#189,.T.);
#232=ORIENTED_EDGE('',*,*,#190,.F.);
#233=ORIENTED_EDGE('',*,*,#189,.F.);
#234=ORIENTED_EDGE('',*,*,#191,.F.);
#235=ORIENTED_EDGE('',*,*,#192,.T.);
#236=ORIENTED_EDGE('',*,*,#193,.F.);
#237=ORIENTED_EDGE('',*,*,#192,.F.);
#238=ORIENTED_EDGE('',*,*,#194,.F.);
#239=ORIENTED_EDGE('',*,*,#195,.T.);
#240=ORIENTED_EDGE('',*,*,#196,.F.);
#241=ORIENTED_EDGE('',*,*,#195,.F.);
#242=ORIENTED_EDGE('',*,*,#197,.F.);
#243=ORIENTED_EDGE('',*,*,#198,.T.);
#244=ORIENTED_EDGE('',*,*,#199,.F.);
#245=ORIENTED_EDGE('',*,*,#198,.F.);
#246=ORIENTED_EDGE('',*,*,#200,.F.);
#247=ORIENTED_EDGE('',*,*,#201,.T.);
#248=ORIENTED_EDGE('',*,*,#202,.F.);
#249=ORIENTED_EDGE('',*,*,#201,.F.);
#250=ORIENTED_EDGE('',*,*,#203,.F.);
#251=ORIENTED_EDGE('',*,*,#204,.T.);
#252=ORIENTED_EDGE('',*,*,#205,.F.);
#253=ORIENTED_EDGE('',*,*,#204,.F.);
#254=ORIENTED_EDGE('',*,*,#206,.F.);
#255=ORIENTED_EDGE('',*,*,#207,.T.);
#256=ORIENTED_EDGE('',*,*,#208,.F.);
#257=ORIENTED_EDGE('',*,*,#207,.F.);
#258=ORIENTED_EDGE('',*,*,#209,.F.);
#259=ORIENTED_EDGE('',*,*,#210,.T.);
#260=ORIENTED_EDGE('',*,*,#211,.F.);
#261=ORIENTED_EDGE('',*,*,#210,.F.);
#262=ORIENTED_EDGE('',*,*,#212,.F.);
#263=ORIENTED_EDGE('',*,*,#213,.T.);
#264=ORIENTED_EDGE('',*,*,#214,.F.);
#265=ORIENTED_EDGE('',*,*,#213,.F.);
#266=ORIENTED_EDGE('',*,*,#215,.F.);
#267=ORIENTED_EDGE('',*,*,#216,.T.);
#268=ORIENTED_EDGE('',*,*,#217,.T.);
#269=ORIENTED_EDGE('',*,*,#216,.F.);
#270=ORIENTED_EDGE('',*,*,#218,.F.);
#271=ORIENTED_EDGE('',*,*,#217,.F.);
#272=ORIENTED_EDGE('',*,*,#218,.T.);
#273=ORIENTED_EDGE('',*,*,#219,.T.);
#274=ORIENTED_EDGE('',*,*,#220,.T.);
#275=ORIENTED_EDGE('',*,*,#219,.F.);
#276=ORIENTED_EDGE('',*,*,#221,.F.);
#277=ORIENTED_EDGE('',*,*,#190,.T.);
#278=ORIENTED_EDGE('',*,*,#193,.T.);
#279=ORIENTED_EDGE('',*,*,#196,.T.);
#280=ORIENTED_EDGE('',*,*,#199,.T.);
#281=ORIENTED_EDGE('',*,*,#202,.T.);
#282=ORIENTED_EDGE('',*,*,#205,.T.);
#283=ORIENTED_EDGE('',*,*,#208,.T.);
#284=ORIENTED_EDGE('',*,*,#211,.T.);
#285=ORIENTED_EDGE('',*,*,#214,.T.);
#286=ORIENTED_EDGE('',*,*,#220,.F.);
#287=ORIENTED_EDGE('',*,*,#222,.F.);
#288=ORIENTED_EDGE('',*,*,#223,.T.);
#289=ORIENTED_EDGE('',*,*,#224,.T.);
#290=ORIENTED_EDGE('',*,*,#223,.F.);
#291=ORIENTED_EDGE('',*,*,#224,.F.);
#292=ORIENTED_EDGE('',*,*,#225,.F.);
#293=ORIENTED_EDGE('',*,*,#226,.F.);
#294=ORIENTED_EDGE('',*,*,#227,.T.);
#295=ORIENTED_EDGE('',*,*,#225,.T.);
#296=ORIENTED_EDGE('',*,*,#227,.F.);
#297=ORIENTED_EDGE('',*,*,#221,.T.);
#298=ORIENTED_EDGE('',*,*,#228,.T.);
#299=ORIENTED_EDGE('',*,*,#229,.F.);
#300=ORIENTED_EDGE('',*,*,#228,.F.);
#301=ORIENTED_EDGE('',*,*,#229,.T.);
#302=ORIENTED_EDGE('',*,*,#188,.T.);
#303=ORIENTED_EDGE('',*,*,#191,.T.);
#304=ORIENTED_EDGE('',*,*,#194,.T.);
#305=ORIENTED_EDGE('',*,*,#197,.T.);
#306=ORIENTED_EDGE('',*,*,#200,.T.);
#307=ORIENTED_EDGE('',*,*,#203,.T.);
#308=ORIENTED_EDGE('',*,*,#206,.T.);
#309=ORIENTED_EDGE('',*,*,#209,.T.);
#310=ORIENTED_EDGE('',*,*,#212,.T.);
#311=ORIENTED_EDGE('',*,*,#222,.T.);
#312=ORIENTED_EDGE('',*,*,#215,.T.);
#313=ORIENTED_EDGE('',*,*,#226,.T.);
#314=CYLINDRICAL_SURFACE('',#361,1.65);
#315=CYLINDRICAL_SURFACE('',#364,1.65);
#316=CYLINDRICAL_SURFACE('',#367,1.75);
#317=CYLINDRICAL_SURFACE('',#370,1.65);
#318=CYLINDRICAL_SURFACE('',#373,1.75);
#319=CYLINDRICAL_SURFACE('',#376,1.65);
#320=CYLINDRICAL_SURFACE('',#379,1.65);
#321=CYLINDRICAL_SURFACE('',#382,1.75);
#322=CYLINDRICAL_SURFACE('',#385,1.65);
#323=CYLINDRICAL_SURFACE('',#388,24.);
#324=CYLINDRICAL_SURFACE('',#393,40.5);
#325=CYLINDRICAL_SURFACE('',#397,39.1);
#326=CYLINDRICAL_SURFACE('',#402,20.625);
#327=CYLINDRICAL_SURFACE('',#404,46.);
#328=ADVANCED_FACE('',(#43),#314,.F.);
#329=ADVANCED_FACE('',(#44),#315,.F.);
#330=ADVANCED_FACE('',(#45),#316,.F.);
#331=ADVANCED_FACE('',(#46),#317,.F.);
#332=ADVANCED_FACE('',(#47),#318,.F.);
#333=ADVANCED_FACE('',(#48),#319,.F.);
#334=ADVANCED_FACE('',(#49),#320,.F.);
#335=ADVANCED_FACE('',(#50),#321,.F.);
#336=ADVANCED_FACE('',(#51),#322,.F.);
#337=ADVANCED_FACE('',(#52),#323,.T.);
#338=ADVANCED_FACE('',(#53,#15),#38,.T.);
#339=ADVANCED_FACE('',(#54),#324,.T.);
#340=ADVANCED_FACE('',(#55,#16,#17,#18,#19,#20,#21,#22,#23,#24,#25),#39,
 .T.);
#341=ADVANCED_FACE('',(#56),#325,.F.);
#342=ADVANCED_FACE('',(#57,#26),#40,.T.);
#343=ADVANCED_FACE('',(#58),#326,.F.);
#344=ADVANCED_FACE('',(#59),#327,.T.);
#345=ADVANCED_FACE('',(#60,#27,#28,#29,#30,#31,#32,#33,#34,#35,#36),#41,
 .T.);
#346=ADVANCED_FACE('',(#61,#37),#42,.F.);
#347=CLOSED_SHELL('',(#328,#329,#330,#331,#332,#333,#334,#335,#336,#337,
#338,#339,#340,#341,#342,#343,#344,#345,#346));
#348=DERIVED_UNIT_ELEMENT(#350,1.);
#349=DERIVED_UNIT_ELEMENT(#613,-3.);
#350=(
MASS_UNIT()
NAMED_UNIT(*)
SI_UNIT(.KILO.,.GRAM.)
);
#351=DERIVED_UNIT((#348,#349));
#352=MEASURE_REPRESENTATION_ITEM('density measure',
POSITIVE_RATIO_MEASURE(7850.),#351);
#353=PROPERTY_DEFINITION_REPRESENTATION(#358,#355);
#354=PROPERTY_DEFINITION_REPRESENTATION(#359,#356);
#355=REPRESENTATION('material name',(#357),#610);
#356=REPRESENTATION('density',(#352),#610);
#357=DESCRIPTIVE_REPRESENTATION_ITEM('Acier','Acier');
#358=PROPERTY_DEFINITION('material property','material name',#620);
#359=PROPERTY_DEFINITION('material property','density of part',#620);
#360=AXIS2_PLACEMENT_3D('',#518,#408,#409);
#361=AXIS2_PLACEMENT_3D('',#519,#410,#411);
#362=AXIS2_PLACEMENT_3D('',#521,#412,#413);
#363=AXIS2_PLACEMENT_3D('',#524,#415,#416);
#364=AXIS2_PLACEMENT_3D('',#525,#417,#418);
#365=AXIS2_PLACEMENT_3D('',#527,#419,#420);
#366=AXIS2_PLACEMENT_3D('',#530,#422,#423);
#367=AXIS2_PLACEMENT_3D('',#531,#424,#425);
#368=AXIS2_PLACEMENT_3D('',#533,#426,#427);
#369=AXIS2_PLACEMENT_3D('',#536,#429,#430);
#370=AXIS2_PLACEMENT_3D('',#537,#431,#432);
#371=AXIS2_PLACEMENT_3D('',#539,#433,#434);
#372=AXIS2_PLACEMENT_3D('',#542,#436,#437);
#373=AXIS2_PLACEMENT_3D('',#543,#438,#439);
#374=AXIS2_PLACEMENT_3D('',#545,#440,#441);
#375=AXIS2_PLACEMENT_3D('',#548,#443,#444);
#376=AXIS2_PLACEMENT_3D('',#549,#445,#446);
#377=AXIS2_PLACEMENT_3D('',#551,#447,#448);
#378=AXIS2_PLACEMENT_3D('',#554,#450,#451);
#379=AXIS2_PLACEMENT_3D('',#555,#452,#453);
#380=AXIS2_PLACEMENT_3D('',#557,#454,#455);
#381=AXIS2_PLACEMENT_3D('',#560,#457,#458);
#382=AXIS2_PLACEMENT_3D('',#561,#459,#460);
#383=AXIS2_PLACEMENT_3D('',#563,#461,#462);
#384=AXIS2_PLACEMENT_3D('',#566,#464,#465);
#385=AXIS2_PLACEMENT_3D('',#567,#466,#467);
#386=AXIS2_PLACEMENT_3D('',#569,#468,#469);
#387=AXIS2_PLACEMENT_3D('',#572,#471,#472);
#388=AXIS2_PLACEMENT_3D('',#573,#473,#474);
#389=AXIS2_PLACEMENT_3D('',#575,#475,#476);
#390=AXIS2_PLACEMENT_3D('',#578,#478,#479);
#391=AXIS2_PLACEMENT_3D('',#579,#480,#481);
#392=AXIS2_PLACEMENT_3D('',#581,#482,#483);
#393=AXIS2_PLACEMENT_3D('',#582,#484,#485);
#394=AXIS2_PLACEMENT_3D('',#585,#487,#488);
#395=AXIS2_PLACEMENT_3D('',#586,#489,#490);
#396=AXIS2_PLACEMENT_3D('',#588,#491,#492);
#397=AXIS2_PLACEMENT_3D('',#589,#493,#494);
#398=AXIS2_PLACEMENT_3D('',#591,#495,#496);
#399=AXIS2_PLACEMENT_3D('',#594,#498,#499);
#400=AXIS2_PLACEMENT_3D('',#595,#500,#501);
#401=AXIS2_PLACEMENT_3D('',#597,#502,#503);
#402=AXIS2_PLACEMENT_3D('',#598,#504,#505);
#403=AXIS2_PLACEMENT_3D('',#600,#506,#507);
#404=AXIS2_PLACEMENT_3D('',#602,#509,#510);
#405=AXIS2_PLACEMENT_3D('',#605,#512,#513);
#406=AXIS2_PLACEMENT_3D('',#606,#514,#515);
#407=AXIS2_PLACEMENT_3D('',#607,#516,#517);
#408=DIRECTION('axis',(0.,0.,1.));
#409=DIRECTION('refdir',(1.,0.,0.));
#410=DIRECTION('center_axis',(0.,0.,-1.));
#411=DIRECTION('ref_axis',(-1.,0.,0.));
#412=DIRECTION('center_axis',(0.,0.,-1.));
#413=DIRECTION('ref_axis',(-1.,0.,0.));
#414=DIRECTION('',(0.,0.,-1.));
#415=DIRECTION('center_axis',(0.,0.,1.));
#416=DIRECTION('ref_axis',(-1.,0.,0.));
#417=DIRECTION('center_axis',(0.,0.,-1.));
#418=DIRECTION('ref_axis',(-1.,0.,0.));
#419=DIRECTION('center_axis',(0.,0.,-1.));
#420=DIRECTION('ref_axis',(-1.,0.,0.));
#421=DIRECTION('',(0.,0.,-1.));
#422=DIRECTION('center_axis',(0.,0.,1.));
#423=DIRECTION('ref_axis',(-1.,0.,0.));
#424=DIRECTION('center_axis',(0.,0.,-1.));
#425=DIRECTION('ref_axis',(-1.,0.,0.));
#426=DIRECTION('center_axis',(0.,0.,-1.));
#427=DIRECTION('ref_axis',(-1.,0.,0.));
#428=DIRECTION('',(0.,0.,-1.));
#429=DIRECTION('center_axis',(0.,0.,1.));
#430=DIRECTION('ref_axis',(-1.,0.,0.));
#431=DIRECTION('center_axis',(0.,0.,-1.));
#432=DIRECTION('ref_axis',(-1.,0.,0.));
#433=DIRECTION('center_axis',(0.,0.,-1.));
#434=DIRECTION('ref_axis',(-1.,0.,0.));
#435=DIRECTION('',(0.,0.,-1.));
#436=DIRECTION('center_axis',(0.,0.,1.));
#437=DIRECTION('ref_axis',(-1.,0.,0.));
#438=DIRECTION('center_axis',(0.,0.,-1.));
#439=DIRECTION('ref_axis',(-1.,0.,0.));
#440=DIRECTION('center_axis',(0.,0.,-1.));
#441=DIRECTION('ref_axis',(-1.,0.,0.));
#442=DIRECTION('',(0.,0.,-1.));
#443=DIRECTION('center_axis',(0.,0.,1.));
#444=DIRECTION('ref_axis',(-1.,0.,0.));
#445=DIRECTION('center_axis',(0.,0.,-1.));
#446=DIRECTION('ref_axis',(-1.,0.,0.));
#447=DIRECTION('center_axis',(0.,0.,-1.));
#448=DIRECTION('ref_axis',(-1.,0.,0.));
#449=DIRECTION('',(0.,0.,-1.));
#450=DIRECTION('center_axis',(0.,0.,1.));
#451=DIRECTION('ref_axis',(-1.,0.,0.));
#452=DIRECTION('center_axis',(0.,0.,-1.));
#453=DIRECTION('ref_axis',(-1.,0.,0.));
#454=DIRECTION('center_axis',(0.,0.,-1.));
#455=DIRECTION('ref_axis',(-1.,0.,0.));
#456=DIRECTION('',(0.,0.,-1.));
#457=DIRECTION('center_axis',(0.,0.,1.));
#458=DIRECTION('ref_axis',(-1.,0.,0.));
#459=DIRECTION('center_axis',(0.,0.,-1.));
#460=DIRECTION('ref_axis',(-1.,0.,0.));
#461=DIRECTION('center_axis',(0.,0.,-1.));
#462=DIRECTION('ref_axis',(-1.,0.,0.));
#463=DIRECTION('',(0.,0.,-1.));
#464=DIRECTION('center_axis',(0.,0.,1.));
#465=DIRECTION('ref_axis',(-1.,0.,0.));
#466=DIRECTION('center_axis',(0.,0.,-1.));
#467=DIRECTION('ref_axis',(-1.,0.,0.));
#468=DIRECTION('center_axis',(0.,0.,-1.));
#469=DIRECTION('ref_axis',(-1.,0.,0.));
#470=DIRECTION('',(0.,0.,-1.));
#471=DIRECTION('center_axis',(0.,0.,1.));
#472=DIRECTION('ref_axis',(-1.,0.,0.));
#473=DIRECTION('center_axis',(0.,0.,1.));
#474=DIRECTION('ref_axis',(1.,0.,0.));
#475=DIRECTION('center_axis',(0.,0.,-1.));
#476=DIRECTION('ref_axis',(1.,0.,0.));
#477=DIRECTION('',(0.,0.,1.));
#478=DIRECTION('center_axis',(0.,0.,-1.));
#479=DIRECTION('ref_axis',(1.,0.,0.));
#480=DIRECTION('center_axis',(0.,0.,-1.));
#481=DIRECTION('ref_axis',(1.,0.,0.));
#482=DIRECTION('center_axis',(0.,0.,1.));
#483=DIRECTION('ref_axis',(1.,0.,0.));
#484=DIRECTION('center_axis',(0.,0.,1.));
#485=DIRECTION('ref_axis',(1.,0.,0.));
#486=DIRECTION('',(0.,0.,1.));
#487=DIRECTION('center_axis',(0.,0.,-1.));
#488=DIRECTION('ref_axis',(1.,0.,0.));
#489=DIRECTION('center_axis',(0.,0.,-1.));
#490=DIRECTION('ref_axis',(1.,0.,0.));
#491=DIRECTION('center_axis',(0.,0.,1.));
#492=DIRECTION('ref_axis',(1.,0.,0.));
#493=DIRECTION('center_axis',(0.,0.,-1.));
#494=DIRECTION('ref_axis',(-1.,0.,0.));
#495=DIRECTION('center_axis',(0.,0.,-1.));
#496=DIRECTION('ref_axis',(-1.,0.,0.));
#497=DIRECTION('',(0.,0.,-1.));
#498=DIRECTION('center_axis',(0.,0.,-1.));
#499=DIRECTION('ref_axis',(-1.,0.,0.));
#500=DIRECTION('center_axis',(0.,0.,1.));
#501=DIRECTION('ref_axis',(-1.,0.,0.));
#502=DIRECTION('center_axis',(0.,0.,1.));
#503=DIRECTION('ref_axis',(1.,0.,0.));
#504=DIRECTION('center_axis',(0.,0.,-1.));
#505=DIRECTION('ref_axis',(1.,0.,0.));
#506=DIRECTION('center_axis',(0.,0.,1.));
#507=DIRECTION('ref_axis',(1.,0.,0.));
#508=DIRECTION('',(0.,0.,1.));
#509=DIRECTION('center_axis',(0.,0.,-1.));
#510=DIRECTION('ref_axis',(1.,0.,0.));
#511=DIRECTION('',(0.,0.,1.));
#512=DIRECTION('center_axis',(0.,0.,1.));
#513=DIRECTION('ref_axis',(1.,0.,0.));
#514=DIRECTION('center_axis',(0.,0.,1.));
#515=DIRECTION('ref_axis',(1.,0.,0.));
#516=DIRECTION('center_axis',(0.,0.,1.));
#517=DIRECTION('ref_axis',(1.,0.,0.));
#518=CARTESIAN_POINT('',(0.,0.,0.));
#519=CARTESIAN_POINT('Origin',(-40.3128134317155,14.6726641486712,0.));
#520=CARTESIAN_POINT('',(-38.6628134317155,14.6726641486712,0.));
#521=CARTESIAN_POINT('Origin',(-40.3128134317155,14.6726641486712,0.));
#522=CARTESIAN_POINT('',(-38.6628134317155,14.6726641486712,-5.));
#523=CARTESIAN_POINT('',(-38.6628134317155,14.6726641486712,0.));
#524=CARTESIAN_POINT('Origin',(-40.3128134317155,14.6726641486712,-5.));
#525=CARTESIAN_POINT('Origin',(-7.44950682191132,-42.2482526042237,0.));
#526=CARTESIAN_POINT('',(-5.79950682191132,-42.2482526042237,0.));
#527=CARTESIAN_POINT('Origin',(-7.44950682191132,-42.2482526042237,0.));
#528=CARTESIAN_POINT('',(-5.79950682191132,-42.2482526042237,-5.));
#529=CARTESIAN_POINT('',(-5.79950682191132,-42.2482526042237,0.));
#530=CARTESIAN_POINT('Origin',(-7.44950682191132,-42.2482526042237,-5.));
#531=CARTESIAN_POINT('Origin',(0.,-43.3,0.));
#532=CARTESIAN_POINT('',(1.75,-43.3,0.));
#533=CARTESIAN_POINT('Origin',(0.,-43.3,0.));
#534=CARTESIAN_POINT('',(1.75,-43.3,-5.));
#535=CARTESIAN_POINT('',(1.75,-43.3,0.));
#536=CARTESIAN_POINT('Origin',(0.,-43.3,-5.));
#537=CARTESIAN_POINT('Origin',(32.8633066098042,27.5755884555525,0.));
#538=CARTESIAN_POINT('',(34.5133066098042,27.5755884555525,0.));
#539=CARTESIAN_POINT('Origin',(32.8633066098042,27.5755884555525,0.));
#540=CARTESIAN_POINT('',(34.5133066098042,27.5755884555525,-5.));
#541=CARTESIAN_POINT('',(34.5133066098042,27.5755884555525,0.));
#542=CARTESIAN_POINT('Origin',(32.8633066098042,27.5755884555525,-5.));
#543=CARTESIAN_POINT('Origin',(-37.4988999838662,21.65,0.));
#544=CARTESIAN_POINT('',(-35.7488999838662,21.65,0.));
#545=CARTESIAN_POINT('Origin',(-37.4988999838662,21.65,0.));
#546=CARTESIAN_POINT('',(-35.7488999838662,21.65,-5.));
#547=CARTESIAN_POINT('',(-35.7488999838662,21.65,0.));
#548=CARTESIAN_POINT('Origin',(-37.4988999838662,21.65,-5.));
#549=CARTESIAN_POINT('Origin',(40.3128134317155,14.6726641486712,0.));
#550=CARTESIAN_POINT('',(41.9628134317155,14.6726641486712,0.));
#551=CARTESIAN_POINT('Origin',(40.3128134317155,14.6726641486712,0.));
#552=CARTESIAN_POINT('',(41.9628134317155,14.6726641486712,-5.));
#553=CARTESIAN_POINT('',(41.9628134317155,14.6726641486712,0.));
#554=CARTESIAN_POINT('Origin',(40.3128134317155,14.6726641486712,-5.));
#555=CARTESIAN_POINT('Origin',(7.44950682191131,-42.2482526042237,0.));
#556=CARTESIAN_POINT('',(9.09950682191131,-42.2482526042237,0.));
#557=CARTESIAN_POINT('Origin',(7.44950682191131,-42.2482526042237,0.));
#558=CARTESIAN_POINT('',(9.09950682191131,-42.2482526042237,-5.));
#559=CARTESIAN_POINT('',(9.09950682191131,-42.2482526042237,0.));
#560=CARTESIAN_POINT('Origin',(7.44950682191131,-42.2482526042237,-5.));
#561=CARTESIAN_POINT('Origin',(37.4988999838662,21.65,0.));
#562=CARTESIAN_POINT('',(39.2488999838662,21.65,0.));
#563=CARTESIAN_POINT('Origin',(37.4988999838662,21.65,0.));
#564=CARTESIAN_POINT('',(39.2488999838662,21.65,-5.));
#565=CARTESIAN_POINT('',(39.2488999838662,21.65,0.));
#566=CARTESIAN_POINT('Origin',(37.4988999838662,21.65,-5.));
#567=CARTESIAN_POINT('Origin',(-32.8633066098041,27.5755884555525,0.));
#568=CARTESIAN_POINT('',(-31.2133066098041,27.5755884555525,0.));
#569=CARTESIAN_POINT('Origin',(-32.8633066098041,27.5755884555525,0.));
#570=CARTESIAN_POINT('',(-31.2133066098041,27.5755884555525,-5.));
#571=CARTESIAN_POINT('',(-31.2133066098041,27.5755884555525,0.));
#572=CARTESIAN_POINT('Origin',(-32.8633066098041,27.5755884555525,-5.));
#573=CARTESIAN_POINT('Origin',(0.,0.,-10.5));
#574=CARTESIAN_POINT('',(-24.,2.93915231795365E-15,-10.5));
#575=CARTESIAN_POINT('Origin',(0.,0.,-10.5));
#576=CARTESIAN_POINT('',(-24.,2.93915231795365E-15,-6.5));
#577=CARTESIAN_POINT('',(-24.,-2.93915231795365E-15,-10.5));
#578=CARTESIAN_POINT('Origin',(0.,0.,-6.5));
#579=CARTESIAN_POINT('Origin',(0.,0.,-6.5));
#580=CARTESIAN_POINT('',(-40.5,4.95981953654678E-15,-6.5));
#581=CARTESIAN_POINT('Origin',(0.,0.,-6.5));
#582=CARTESIAN_POINT('Origin',(0.,0.,-10.5));
#583=CARTESIAN_POINT('',(-40.5,4.95981953654678E-15,-5.));
#584=CARTESIAN_POINT('',(-40.5,-4.95981953654678E-15,-10.5));
#585=CARTESIAN_POINT('Origin',(0.,0.,-5.));
#586=CARTESIAN_POINT('Origin',(0.,0.,-5.));
#587=CARTESIAN_POINT('',(-46.,5.63337527607782E-15,-5.));
#588=CARTESIAN_POINT('Origin',(0.,0.,-5.));
#589=CARTESIAN_POINT('Origin',(0.,0.,0.));
#590=CARTESIAN_POINT('',(39.1,4.78836898466615E-15,0.));
#591=CARTESIAN_POINT('Origin',(0.,0.,0.));
#592=CARTESIAN_POINT('',(39.1,4.78836898466615E-15,-5.));
#593=CARTESIAN_POINT('',(39.1,-4.78836898466615E-15,0.));
#594=CARTESIAN_POINT('Origin',(0.,0.,-5.));
#595=CARTESIAN_POINT('Origin',(0.,0.,-5.));
#596=CARTESIAN_POINT('',(-20.625,2.52583402324142E-15,-5.));
#597=CARTESIAN_POINT('Origin',(0.,0.,-5.));
#598=CARTESIAN_POINT('Origin',(0.,0.,0.));
#599=CARTESIAN_POINT('',(-20.625,-2.52583402324142E-15,-10.5));
#600=CARTESIAN_POINT('Origin',(0.,0.,-10.5));
#601=CARTESIAN_POINT('',(-20.625,2.52583402324142E-15,0.));
#602=CARTESIAN_POINT('Origin',(0.,0.,0.));
#603=CARTESIAN_POINT('',(-46.,-5.63337527607782E-15,0.));
#604=CARTESIAN_POINT('',(-46.,5.63337527607782E-15,0.));
#605=CARTESIAN_POINT('Origin',(0.,0.,0.));
#606=CARTESIAN_POINT('Origin',(0.,0.,0.));
#607=CARTESIAN_POINT('Origin',(0.,0.,-10.5));
#608=UNCERTAINTY_MEASURE_WITH_UNIT(LENGTH_MEASURE(0.01),#612,
'DISTANCE_ACCURACY_VALUE',
'Maximum model space distance between geometric entities at asserted c
onnectivities');
#609=UNCERTAINTY_MEASURE_WITH_UNIT(LENGTH_MEASURE(0.01),#612,
'DISTANCE_ACCURACY_VALUE',
'Maximum model space distance between geometric entities at asserted c
onnectivities');
#610=(
GEOMETRIC_REPRESENTATION_CONTEXT(3)
GLOBAL_UNCERTAINTY_ASSIGNED_CONTEXT((#608))
GLOBAL_UNIT_ASSIGNED_CONTEXT((#612,#614,#615))
REPRESENTATION_CONTEXT('','3D')
);
#611=(
GEOMETRIC_REPRESENTATION_CONTEXT(3)
GLOBAL_UNCERTAINTY_ASSIGNED_CONTEXT((#609))
GLOBAL_UNIT_ASSIGNED_CONTEXT((#612,#614,#615))
REPRESENTATION_CONTEXT('','3D')
);
#612=(
LENGTH_UNIT()
NAMED_UNIT(*)
SI_UNIT(.MILLI.,.METRE.)
);
#613=(
LENGTH_UNIT()
NAMED_UNIT(*)
SI_UNIT($,.METRE.)
);
#614=(
NAMED_UNIT(*)
PLANE_ANGLE_UNIT()
SI_UNIT($,.RADIAN.)
);
#615=(
NAMED_UNIT(*)
SI_UNIT($,.STERADIAN.)
SOLID_ANGLE_UNIT()
);
#616=SHAPE_DEFINITION_REPRESENTATION(#617,#618);
#617=PRODUCT_DEFINITION_SHAPE('',$,#620);
#618=SHAPE_REPRESENTATION('',(#360),#610);
#619=PRODUCT_DEFINITION_CONTEXT('part definition',#624,'design');
#620=PRODUCT_DEFINITION('Piece 2 M42','Piece 2 M42 v1',#621,#619);
#621=PRODUCT_DEFINITION_FORMATION('',$,#626);
#622=PRODUCT_RELATED_PRODUCT_CATEGORY('Piece 2 M42 v1','Piece 2 M42 v1',
(#626));
#623=APPLICATION_PROTOCOL_DEFINITION('international standard',
'ap242_managed_model_based_3d_engineering',2011,#624);
#624=APPLICATION_CONTEXT('Managed model based 3d engineering');
#625=PRODUCT_CONTEXT('part definition',#624,'mechanical');
#626=PRODUCT('Piece 2 M42','Piece 2 M42 v1',$,(#625));
#627=PRESENTATION_STYLE_ASSIGNMENT((#628));
#628=SURFACE_STYLE_USAGE(.BOTH.,#629);
#629=SURFACE_SIDE_STYLE('',(#630));
#630=SURFACE_STYLE_FILL_AREA(#631);
#631=FILL_AREA_STYLE('Acier - Satin\X\E9',(#632));
#632=FILL_AREA_STYLE_COLOUR('Acier - Satin\X\E9',#633);
#633=COLOUR_RGB('Acier - Satin\X\E9',0.627450980392157,0.627450980392157,
0.627450980392157);
ENDSEC;
END-ISO-10303-21;
