ISO-10303-21;
HEADER;
/* Generated by software containing ST-Developer
 * from STEP Tools, Inc. (www.steptools.com) 
 */

FILE_DESCRIPTION(
/* description */ ('',
'CAx-IF Rec.Pracs.---Representation and Presentation of Product Manufa
cturing Information (PMI)---4.0---2014-10-13'),
/* implementation_level */ '2;1');

FILE_NAME(
/* name */ 'M54 tilter v1.step',
/* time_stamp */ '2024-11-26T19:03:18+01:00',
/* author */ (''),
/* organization */ (''),
/* preprocessor_version */ 'ST-DEVELOPER v20',
/* originating_system */ 'Autodesk Translation Framework v13.20.0.188',

/* authorisation */ '');

FILE_SCHEMA (('AP242_MANAGED_MODEL_BASED_3D_ENGINEERING_MIM_LF { 1 0 10303 442 1 1 4 }'));
ENDSEC;

DATA;
#10=MECHANICAL_DESIGN_GEOMETRIC_PRESENTATION_REPRESENTATION('',(#13),#287);
#11=SHAPE_REPRESENTATION_RELATIONSHIP('SRR','None',#294,#12);
#12=ADVANCED_BREP_SHAPE_REPRESENTATION('',(#14),#286);
#13=STYLED_ITEM('',(#303),#14);
#14=MANIFOLD_SOLID_BREP('Corps1',#159);
#15=FACE_BOUND('',#41,.T.);
#16=FACE_BOUND('',#45,.T.);
#17=FACE_BOUND('',#46,.T.);
#18=FACE_BOUND('',#47,.T.);
#19=FACE_BOUND('',#48,.T.);
#20=FACE_BOUND('',#50,.T.);
#21=FACE_BOUND('',#51,.T.);
#22=FACE_BOUND('',#52,.T.);
#23=FACE_BOUND('',#53,.T.);
#24=PLANE('',#185);
#25=PLANE('',#192);
#26=PLANE('',#193);
#27=FACE_OUTER_BOUND('',#36,.T.);
#28=FACE_OUTER_BOUND('',#37,.T.);
#29=FACE_OUTER_BOUND('',#38,.T.);
#30=FACE_OUTER_BOUND('',#39,.T.);
#31=FACE_OUTER_BOUND('',#40,.T.);
#32=FACE_OUTER_BOUND('',#42,.T.);
#33=FACE_OUTER_BOUND('',#43,.T.);
#34=FACE_OUTER_BOUND('',#44,.T.);
#35=FACE_OUTER_BOUND('',#49,.T.);
#36=EDGE_LOOP('',(#108,#109,#110,#111));
#37=EDGE_LOOP('',(#112,#113,#114,#115));
#38=EDGE_LOOP('',(#116,#117,#118,#119));
#39=EDGE_LOOP('',(#120,#121,#122,#123));
#40=EDGE_LOOP('',(#124));
#41=EDGE_LOOP('',(#125));
#42=EDGE_LOOP('',(#126,#127,#128,#129));
#43=EDGE_LOOP('',(#130,#131,#132,#133));
#44=EDGE_LOOP('',(#134));
#45=EDGE_LOOP('',(#135));
#46=EDGE_LOOP('',(#136));
#47=EDGE_LOOP('',(#137));
#48=EDGE_LOOP('',(#138));
#49=EDGE_LOOP('',(#139));
#50=EDGE_LOOP('',(#140));
#51=EDGE_LOOP('',(#141));
#52=EDGE_LOOP('',(#142));
#53=EDGE_LOOP('',(#143));
#54=LINE('',#249,#60);
#55=LINE('',#255,#61);
#56=LINE('',#261,#62);
#57=LINE('',#267,#63);
#58=LINE('',#275,#64);
#59=LINE('',#280,#65);
#60=VECTOR('',#200,1.25);
#61=VECTOR('',#207,1.25);
#62=VECTOR('',#214,1.25);
#63=VECTOR('',#221,40.8);
#64=VECTOR('',#232,26.625);
#65=VECTOR('',#237,46.);
#66=CIRCLE('',#174,1.25);
#67=CIRCLE('',#175,1.25);
#68=CIRCLE('',#177,1.25);
#69=CIRCLE('',#178,1.25);
#70=CIRCLE('',#180,1.25);
#71=CIRCLE('',#181,1.25);
#72=CIRCLE('',#183,40.8);
#73=CIRCLE('',#184,40.8);
#74=CIRCLE('',#186,26.625);
#75=CIRCLE('',#188,26.625);
#76=CIRCLE('',#190,46.);
#77=CIRCLE('',#191,46.);
#78=VERTEX_POINT('',#246);
#79=VERTEX_POINT('',#248);
#80=VERTEX_POINT('',#252);
#81=VERTEX_POINT('',#254);
#82=VERTEX_POINT('',#258);
#83=VERTEX_POINT('',#260);
#84=VERTEX_POINT('',#264);
#85=VERTEX_POINT('',#266);
#86=VERTEX_POINT('',#270);
#87=VERTEX_POINT('',#273);
#88=VERTEX_POINT('',#277);
#89=VERTEX_POINT('',#279);
#90=EDGE_CURVE('',#78,#78,#66,.T.);
#91=EDGE_CURVE('',#78,#79,#54,.T.);
#92=EDGE_CURVE('',#79,#79,#67,.T.);
#93=EDGE_CURVE('',#80,#80,#68,.T.);
#94=EDGE_CURVE('',#80,#81,#55,.T.);
#95=EDGE_CURVE('',#81,#81,#69,.T.);
#96=EDGE_CURVE('',#82,#82,#70,.T.);
#97=EDGE_CURVE('',#82,#83,#56,.T.);
#98=EDGE_CURVE('',#83,#83,#71,.T.);
#99=EDGE_CURVE('',#84,#84,#72,.T.);
#100=EDGE_CURVE('',#84,#85,#57,.T.);
#101=EDGE_CURVE('',#85,#85,#73,.T.);
#102=EDGE_CURVE('',#86,#86,#74,.T.);
#103=EDGE_CURVE('',#87,#87,#75,.T.);
#104=EDGE_CURVE('',#87,#86,#58,.T.);
#105=EDGE_CURVE('',#88,#88,#76,.T.);
#106=EDGE_CURVE('',#88,#89,#59,.T.);
#107=EDGE_CURVE('',#89,#89,#77,.T.);
#108=ORIENTED_EDGE('',*,*,#90,.F.);
#109=ORIENTED_EDGE('',*,*,#91,.T.);
#110=ORIENTED_EDGE('',*,*,#92,.F.);
#111=ORIENTED_EDGE('',*,*,#91,.F.);
#112=ORIENTED_EDGE('',*,*,#93,.F.);
#113=ORIENTED_EDGE('',*,*,#94,.T.);
#114=ORIENTED_EDGE('',*,*,#95,.F.);
#115=ORIENTED_EDGE('',*,*,#94,.F.);
#116=ORIENTED_EDGE('',*,*,#96,.F.);
#117=ORIENTED_EDGE('',*,*,#97,.T.);
#118=ORIENTED_EDGE('',*,*,#98,.F.);
#119=ORIENTED_EDGE('',*,*,#97,.F.);
#120=ORIENTED_EDGE('',*,*,#99,.F.);
#121=ORIENTED_EDGE('',*,*,#100,.T.);
#122=ORIENTED_EDGE('',*,*,#101,.T.);
#123=ORIENTED_EDGE('',*,*,#100,.F.);
#124=ORIENTED_EDGE('',*,*,#101,.F.);
#125=ORIENTED_EDGE('',*,*,#102,.F.);
#126=ORIENTED_EDGE('',*,*,#103,.F.);
#127=ORIENTED_EDGE('',*,*,#104,.T.);
#128=ORIENTED_EDGE('',*,*,#102,.T.);
#129=ORIENTED_EDGE('',*,*,#104,.F.);
#130=ORIENTED_EDGE('',*,*,#105,.F.);
#131=ORIENTED_EDGE('',*,*,#106,.T.);
#132=ORIENTED_EDGE('',*,*,#107,.F.);
#133=ORIENTED_EDGE('',*,*,#106,.F.);
#134=ORIENTED_EDGE('',*,*,#107,.T.);
#135=ORIENTED_EDGE('',*,*,#90,.T.);
#136=ORIENTED_EDGE('',*,*,#93,.T.);
#137=ORIENTED_EDGE('',*,*,#96,.T.);
#138=ORIENTED_EDGE('',*,*,#99,.T.);
#139=ORIENTED_EDGE('',*,*,#105,.T.);
#140=ORIENTED_EDGE('',*,*,#92,.T.);
#141=ORIENTED_EDGE('',*,*,#95,.T.);
#142=ORIENTED_EDGE('',*,*,#98,.T.);
#143=ORIENTED_EDGE('',*,*,#103,.T.);
#144=CYLINDRICAL_SURFACE('',#173,1.25);
#145=CYLINDRICAL_SURFACE('',#176,1.25);
#146=CYLINDRICAL_SURFACE('',#179,1.25);
#147=CYLINDRICAL_SURFACE('',#182,40.8);
#148=CYLINDRICAL_SURFACE('',#187,26.625);
#149=CYLINDRICAL_SURFACE('',#189,46.);
#150=ADVANCED_FACE('',(#27),#144,.F.);
#151=ADVANCED_FACE('',(#28),#145,.F.);
#152=ADVANCED_FACE('',(#29),#146,.F.);
#153=ADVANCED_FACE('',(#30),#147,.F.);
#154=ADVANCED_FACE('',(#31,#15),#24,.T.);
#155=ADVANCED_FACE('',(#32),#148,.F.);
#156=ADVANCED_FACE('',(#33),#149,.T.);
#157=ADVANCED_FACE('',(#34,#16,#17,#18,#19),#25,.T.);
#158=ADVANCED_FACE('',(#35,#20,#21,#22,#23),#26,.F.);
#159=CLOSED_SHELL('',(#150,#151,#152,#153,#154,#155,#156,#157,#158));
#160=DERIVED_UNIT_ELEMENT(#162,1.);
#161=DERIVED_UNIT_ELEMENT(#289,-3.);
#162=(
MASS_UNIT()
NAMED_UNIT(*)
SI_UNIT(.KILO.,.GRAM.)
);
#163=DERIVED_UNIT((#160,#161));
#164=MEASURE_REPRESENTATION_ITEM('density measure',
POSITIVE_RATIO_MEASURE(7850.),#163);
#165=PROPERTY_DEFINITION_REPRESENTATION(#170,#167);
#166=PROPERTY_DEFINITION_REPRESENTATION(#171,#168);
#167=REPRESENTATION('material name',(#169),#286);
#168=REPRESENTATION('density',(#164),#286);
#169=DESCRIPTIVE_REPRESENTATION_ITEM('Acier','Acier');
#170=PROPERTY_DEFINITION('material property','material name',#296);
#171=PROPERTY_DEFINITION('material property','density of part',#296);
#172=AXIS2_PLACEMENT_3D('',#244,#194,#195);
#173=AXIS2_PLACEMENT_3D('',#245,#196,#197);
#174=AXIS2_PLACEMENT_3D('',#247,#198,#199);
#175=AXIS2_PLACEMENT_3D('',#250,#201,#202);
#176=AXIS2_PLACEMENT_3D('',#251,#203,#204);
#177=AXIS2_PLACEMENT_3D('',#253,#205,#206);
#178=AXIS2_PLACEMENT_3D('',#256,#208,#209);
#179=AXIS2_PLACEMENT_3D('',#257,#210,#211);
#180=AXIS2_PLACEMENT_3D('',#259,#212,#213);
#181=AXIS2_PLACEMENT_3D('',#262,#215,#216);
#182=AXIS2_PLACEMENT_3D('',#263,#217,#218);
#183=AXIS2_PLACEMENT_3D('',#265,#219,#220);
#184=AXIS2_PLACEMENT_3D('',#268,#222,#223);
#185=AXIS2_PLACEMENT_3D('',#269,#224,#225);
#186=AXIS2_PLACEMENT_3D('',#271,#226,#227);
#187=AXIS2_PLACEMENT_3D('',#272,#228,#229);
#188=AXIS2_PLACEMENT_3D('',#274,#230,#231);
#189=AXIS2_PLACEMENT_3D('',#276,#233,#234);
#190=AXIS2_PLACEMENT_3D('',#278,#235,#236);
#191=AXIS2_PLACEMENT_3D('',#281,#238,#239);
#192=AXIS2_PLACEMENT_3D('',#282,#240,#241);
#193=AXIS2_PLACEMENT_3D('',#283,#242,#243);
#194=DIRECTION('axis',(0.,0.,1.));
#195=DIRECTION('refdir',(1.,0.,0.));
#196=DIRECTION('center_axis',(0.,0.,-1.));
#197=DIRECTION('ref_axis',(-1.,0.,0.));
#198=DIRECTION('center_axis',(0.,0.,-1.));
#199=DIRECTION('ref_axis',(-1.,0.,0.));
#200=DIRECTION('',(0.,0.,-1.));
#201=DIRECTION('center_axis',(0.,0.,1.));
#202=DIRECTION('ref_axis',(-1.,0.,0.));
#203=DIRECTION('center_axis',(0.,0.,-1.));
#204=DIRECTION('ref_axis',(-1.,0.,0.));
#205=DIRECTION('center_axis',(0.,0.,-1.));
#206=DIRECTION('ref_axis',(-1.,0.,0.));
#207=DIRECTION('',(0.,0.,-1.));
#208=DIRECTION('center_axis',(0.,0.,1.));
#209=DIRECTION('ref_axis',(-1.,0.,0.));
#210=DIRECTION('center_axis',(0.,0.,-1.));
#211=DIRECTION('ref_axis',(-1.,0.,0.));
#212=DIRECTION('center_axis',(0.,0.,-1.));
#213=DIRECTION('ref_axis',(-1.,0.,0.));
#214=DIRECTION('',(0.,0.,-1.));
#215=DIRECTION('center_axis',(0.,0.,1.));
#216=DIRECTION('ref_axis',(-1.,0.,0.));
#217=DIRECTION('center_axis',(0.,0.,-1.));
#218=DIRECTION('ref_axis',(-1.,0.,0.));
#219=DIRECTION('center_axis',(0.,0.,-1.));
#220=DIRECTION('ref_axis',(-1.,0.,0.));
#221=DIRECTION('',(0.,0.,-1.));
#222=DIRECTION('center_axis',(0.,0.,-1.));
#223=DIRECTION('ref_axis',(-1.,0.,0.));
#224=DIRECTION('center_axis',(0.,0.,1.));
#225=DIRECTION('ref_axis',(-1.,0.,0.));
#226=DIRECTION('center_axis',(0.,0.,1.));
#227=DIRECTION('ref_axis',(1.,0.,0.));
#228=DIRECTION('center_axis',(0.,0.,-1.));
#229=DIRECTION('ref_axis',(1.,0.,0.));
#230=DIRECTION('center_axis',(0.,0.,1.));
#231=DIRECTION('ref_axis',(1.,0.,0.));
#232=DIRECTION('',(0.,0.,1.));
#233=DIRECTION('center_axis',(0.,0.,-1.));
#234=DIRECTION('ref_axis',(1.,0.,0.));
#235=DIRECTION('center_axis',(0.,0.,-1.));
#236=DIRECTION('ref_axis',(1.,0.,0.));
#237=DIRECTION('',(0.,0.,1.));
#238=DIRECTION('center_axis',(0.,0.,1.));
#239=DIRECTION('ref_axis',(1.,0.,0.));
#240=DIRECTION('center_axis',(0.,0.,1.));
#241=DIRECTION('ref_axis',(1.,0.,0.));
#242=DIRECTION('center_axis',(0.,0.,1.));
#243=DIRECTION('ref_axis',(1.,0.,0.));
#244=CARTESIAN_POINT('',(0.,0.,0.));
#245=CARTESIAN_POINT('Origin',(0.,-43.3,0.));
#246=CARTESIAN_POINT('',(1.25,-43.3,0.));
#247=CARTESIAN_POINT('Origin',(0.,-43.3,0.));
#248=CARTESIAN_POINT('',(1.25,-43.3,-5.));
#249=CARTESIAN_POINT('',(1.25,-43.3,0.));
#250=CARTESIAN_POINT('Origin',(0.,-43.3,-5.));
#251=CARTESIAN_POINT('Origin',(37.4988999838662,21.65,0.));
#252=CARTESIAN_POINT('',(38.7488999838662,21.65,0.));
#253=CARTESIAN_POINT('Origin',(37.4988999838662,21.65,0.));
#254=CARTESIAN_POINT('',(38.7488999838662,21.65,-5.));
#255=CARTESIAN_POINT('',(38.7488999838662,21.65,0.));
#256=CARTESIAN_POINT('Origin',(37.4988999838662,21.65,-5.));
#257=CARTESIAN_POINT('Origin',(-37.4988999838662,21.65,0.));
#258=CARTESIAN_POINT('',(-36.2488999838662,21.65,0.));
#259=CARTESIAN_POINT('Origin',(-37.4988999838662,21.65,0.));
#260=CARTESIAN_POINT('',(-36.2488999838662,21.65,-5.));
#261=CARTESIAN_POINT('',(-36.2488999838662,21.65,0.));
#262=CARTESIAN_POINT('Origin',(-37.4988999838662,21.65,-5.));
#263=CARTESIAN_POINT('Origin',(0.,0.,0.));
#264=CARTESIAN_POINT('',(40.8,4.9965589405212E-15,0.));
#265=CARTESIAN_POINT('Origin',(0.,0.,0.));
#266=CARTESIAN_POINT('',(40.8,4.9965589405212E-15,-3.));
#267=CARTESIAN_POINT('',(40.8,-4.9965589405212E-15,0.));
#268=CARTESIAN_POINT('Origin',(0.,0.,-3.));
#269=CARTESIAN_POINT('Origin',(0.,0.,-3.));
#270=CARTESIAN_POINT('',(-26.625,3.26062210272983E-15,-3.));
#271=CARTESIAN_POINT('Origin',(0.,0.,-3.));
#272=CARTESIAN_POINT('Origin',(0.,0.,0.));
#273=CARTESIAN_POINT('',(-26.625,-3.26062210272983E-15,-5.));
#274=CARTESIAN_POINT('Origin',(0.,0.,-5.));
#275=CARTESIAN_POINT('',(-26.625,3.26062210272983E-15,0.));
#276=CARTESIAN_POINT('Origin',(0.,0.,0.));
#277=CARTESIAN_POINT('',(-46.,-5.63337527607783E-15,-5.));
#278=CARTESIAN_POINT('Origin',(0.,0.,-5.));
#279=CARTESIAN_POINT('',(-46.,-5.63337527607783E-15,0.));
#280=CARTESIAN_POINT('',(-46.,5.63337527607783E-15,0.));
#281=CARTESIAN_POINT('Origin',(0.,0.,0.));
#282=CARTESIAN_POINT('Origin',(0.,0.,0.));
#283=CARTESIAN_POINT('Origin',(0.,0.,-5.));
#284=UNCERTAINTY_MEASURE_WITH_UNIT(LENGTH_MEASURE(0.01),#288,
'DISTANCE_ACCURACY_VALUE',
'Maximum model space distance between geometric entities at asserted c
onnectivities');
#285=UNCERTAINTY_MEASURE_WITH_UNIT(LENGTH_MEASURE(0.01),#288,
'DISTANCE_ACCURACY_VALUE',
'Maximum model space distance between geometric entities at asserted c
onnectivities');
#286=(
GEOMETRIC_REPRESENTATION_CONTEXT(3)
GLOBAL_UNCERTAINTY_ASSIGNED_CONTEXT((#284))
GLOBAL_UNIT_ASSIGNED_CONTEXT((#288,#290,#291))
REPRESENTATION_CONTEXT('','3D')
);
#287=(
GEOMETRIC_REPRESENTATION_CONTEXT(3)
GLOBAL_UNCERTAINTY_ASSIGNED_CONTEXT((#285))
GLOBAL_UNIT_ASSIGNED_CONTEXT((#288,#290,#291))
REPRESENTATION_CONTEXT('','3D')
);
#288=(
LENGTH_UNIT()
NAMED_UNIT(*)
SI_UNIT(.MILLI.,.METRE.)
);
#289=(
LENGTH_UNIT()
NAMED_UNIT(*)
SI_UNIT($,.METRE.)
);
#290=(
NAMED_UNIT(*)
PLANE_ANGLE_UNIT()
SI_UNIT($,.RADIAN.)
);
#291=(
NAMED_UNIT(*)
SI_UNIT($,.STERADIAN.)
SOLID_ANGLE_UNIT()
);
#292=SHAPE_DEFINITION_REPRESENTATION(#293,#294);
#293=PRODUCT_DEFINITION_SHAPE('',$,#296);
#294=SHAPE_REPRESENTATION('',(#172),#286);
#295=PRODUCT_DEFINITION_CONTEXT('part definition',#300,'design');
#296=PRODUCT_DEFINITION('M54 tilter','M54 tilter v1',#297,#295);
#297=PRODUCT_DEFINITION_FORMATION('',$,#302);
#298=PRODUCT_RELATED_PRODUCT_CATEGORY('M54 tilter v1','M54 tilter v1',(#302));
#299=APPLICATION_PROTOCOL_DEFINITION('international standard',
'ap242_managed_model_based_3d_engineering',2011,#300);
#300=APPLICATION_CONTEXT('Managed model based 3d engineering');
#301=PRODUCT_CONTEXT('part definition',#300,'mechanical');
#302=PRODUCT('M54 tilter','M54 tilter v1',$,(#301));
#303=PRESENTATION_STYLE_ASSIGNMENT((#304));
#304=SURFACE_STYLE_USAGE(.BOTH.,#305);
#305=SURFACE_SIDE_STYLE('',(#306));
#306=SURFACE_STYLE_FILL_AREA(#307);
#307=FILL_AREA_STYLE('Acier - Satin\X\E9',(#308));
#308=FILL_AREA_STYLE_COLOUR('Acier - Satin\X\E9',#309);
#309=COLOUR_RGB('Acier - Satin\X\E9',0.627450980392157,0.627450980392157,
0.627450980392157);
ENDSEC;
END-ISO-10303-21;
