ISO-10303-21;
HEADER;
/* Generated by software containing ST-Developer
 * from STEP Tools, Inc. (www.steptools.com) 
 */

FILE_DESCRIPTION(
/* description */ ('',
'CAx-IF Rec.Pracs.---Representation and Presentation of Product Manufa
cturing Information (PMI)---4.0---2014-10-13'),
/* implementation_level */ '2;1');

FILE_NAME(
/* name */ 'EMBOUT GUIDON TRACER 7.step',
/* time_stamp */ '2024-12-15T22:55:34+01:00',
/* author */ (''),
/* organization */ (''),
/* preprocessor_version */ 'ST-DEVELOPER v20',
/* originating_system */ 'Autodesk Translation Framework v13.20.0.188',

/* authorisation */ '');

FILE_SCHEMA (('AP242_MANAGED_MODEL_BASED_3D_ENGINEERING_MIM_LF { 1 0 10303 442 1 1 4 }'));
ENDSEC;

DATA;
#10=MECHANICAL_DESIGN_GEOMETRIC_PRESENTATION_REPRESENTATION('',(#13),#459);
#11=SHAPE_REPRESENTATION_RELATIONSHIP('SRR','None',#466,#12);
#12=ADVANCED_BREP_SHAPE_REPRESENTATION('',(#14),#458);
#13=STYLED_ITEM('',(#475),#14);
#14=MANIFOLD_SOLID_BREP('Corps1',#243);
#15=TOROIDAL_SURFACE('',#283,11.25,0.5);
#16=TOROIDAL_SURFACE('',#288,16.5,0.5);
#17=TOROIDAL_SURFACE('',#293,9.5,0.5);
#18=TOROIDAL_SURFACE('',#295,12.,5.);
#19=CYLINDRICAL_SURFACE('',#263,10.75);
#20=CYLINDRICAL_SURFACE('',#268,4.25);
#21=CYLINDRICAL_SURFACE('',#275,10.);
#22=CYLINDRICAL_SURFACE('',#291,17.);
#23=FACE_BOUND('',#49,.T.);
#24=FACE_BOUND('',#56,.T.);
#25=FACE_BOUND('',#59,.T.);
#26=FACE_BOUND('',#62,.T.);
#27=PLANE('',#261);
#28=PLANE('',#277);
#29=PLANE('',#281);
#30=PLANE('',#286);
#31=FACE_OUTER_BOUND('',#47,.T.);
#32=FACE_OUTER_BOUND('',#48,.T.);
#33=FACE_OUTER_BOUND('',#50,.T.);
#34=FACE_OUTER_BOUND('',#51,.T.);
#35=FACE_OUTER_BOUND('',#52,.T.);
#36=FACE_OUTER_BOUND('',#53,.T.);
#37=FACE_OUTER_BOUND('',#54,.T.);
#38=FACE_OUTER_BOUND('',#55,.T.);
#39=FACE_OUTER_BOUND('',#57,.T.);
#40=FACE_OUTER_BOUND('',#58,.T.);
#41=FACE_OUTER_BOUND('',#60,.T.);
#42=FACE_OUTER_BOUND('',#61,.T.);
#43=FACE_OUTER_BOUND('',#63,.T.);
#44=FACE_OUTER_BOUND('',#64,.T.);
#45=FACE_OUTER_BOUND('',#65,.T.);
#46=FACE_OUTER_BOUND('',#66,.T.);
#47=EDGE_LOOP('',(#159,#160,#161,#162,#163));
#48=EDGE_LOOP('',(#164));
#49=EDGE_LOOP('',(#165));
#50=EDGE_LOOP('',(#166,#167,#168,#169,#170));
#51=EDGE_LOOP('',(#171,#172,#173,#174,#175));
#52=EDGE_LOOP('',(#176,#177,#178,#179,#180,#181));
#53=EDGE_LOOP('',(#182,#183,#184,#185,#186));
#54=EDGE_LOOP('',(#187,#188,#189,#190,#191));
#55=EDGE_LOOP('',(#192));
#56=EDGE_LOOP('',(#193));
#57=EDGE_LOOP('',(#194,#195,#196,#197,#198));
#58=EDGE_LOOP('',(#199));
#59=EDGE_LOOP('',(#200));
#60=EDGE_LOOP('',(#201,#202,#203,#204));
#61=EDGE_LOOP('',(#205));
#62=EDGE_LOOP('',(#206));
#63=EDGE_LOOP('',(#207,#208,#209,#210));
#64=EDGE_LOOP('',(#211,#212,#213,#214));
#65=EDGE_LOOP('',(#215,#216,#217,#218));
#66=EDGE_LOOP('',(#219,#220,#221,#222));
#67=LINE('',#392,#75);
#68=LINE('',#401,#76);
#69=LINE('',#408,#77);
#70=LINE('',#411,#78);
#71=LINE('',#419,#79);
#72=LINE('',#426,#80);
#73=LINE('',#433,#81);
#74=LINE('',#450,#82);
#75=VECTOR('',#303,10.25);
#76=VECTOR('',#314,10.75);
#77=VECTOR('',#323,4.75);
#78=VECTOR('',#326,4.25);
#79=VECTOR('',#335,10.5);
#80=VECTOR('',#344,10.);
#81=VECTOR('',#353,4.75);
#82=VECTOR('',#376,17.);
#83=CIRCLE('',#258,9.75);
#84=CIRCLE('',#259,10.75);
#85=CIRCLE('',#260,10.75);
#86=CIRCLE('',#262,5.25);
#87=CIRCLE('',#264,10.75);
#88=CIRCLE('',#266,4.25);
#89=CIRCLE('',#267,4.25);
#90=CIRCLE('',#269,4.25);
#91=CIRCLE('',#270,4.25);
#92=CIRCLE('',#272,11.);
#93=CIRCLE('',#273,10.);
#94=CIRCLE('',#274,10.);
#95=CIRCLE('',#276,10.);
#96=CIRCLE('',#278,12.);
#97=CIRCLE('',#280,5.25);
#98=CIRCLE('',#282,9.5);
#99=CIRCLE('',#284,11.25);
#100=CIRCLE('',#285,0.5);
#101=CIRCLE('',#287,16.5);
#102=CIRCLE('',#289,0.5);
#103=CIRCLE('',#290,17.);
#104=CIRCLE('',#292,17.);
#105=CIRCLE('',#294,0.5);
#106=CIRCLE('',#296,5.);
#107=VERTEX_POINT('',#389);
#108=VERTEX_POINT('',#391);
#109=VERTEX_POINT('',#393);
#110=VERTEX_POINT('',#397);
#111=VERTEX_POINT('',#400);
#112=VERTEX_POINT('',#404);
#113=VERTEX_POINT('',#405);
#114=VERTEX_POINT('',#410);
#115=VERTEX_POINT('',#412);
#116=VERTEX_POINT('',#416);
#117=VERTEX_POINT('',#418);
#118=VERTEX_POINT('',#420);
#119=VERTEX_POINT('',#424);
#120=VERTEX_POINT('',#428);
#121=VERTEX_POINT('',#431);
#122=VERTEX_POINT('',#435);
#123=VERTEX_POINT('',#438);
#124=VERTEX_POINT('',#442);
#125=VERTEX_POINT('',#445);
#126=VERTEX_POINT('',#449);
#127=EDGE_CURVE('',#107,#107,#83,.T.);
#128=EDGE_CURVE('',#107,#108,#67,.T.);
#129=EDGE_CURVE('',#108,#109,#84,.T.);
#130=EDGE_CURVE('',#109,#108,#85,.T.);
#131=EDGE_CURVE('',#110,#110,#86,.T.);
#132=EDGE_CURVE('',#109,#111,#68,.T.);
#133=EDGE_CURVE('',#111,#111,#87,.T.);
#134=EDGE_CURVE('',#112,#113,#88,.T.);
#135=EDGE_CURVE('',#113,#112,#89,.T.);
#136=EDGE_CURVE('',#112,#110,#69,.T.);
#137=EDGE_CURVE('',#113,#114,#70,.T.);
#138=EDGE_CURVE('',#115,#114,#90,.T.);
#139=EDGE_CURVE('',#114,#115,#91,.T.);
#140=EDGE_CURVE('',#116,#116,#92,.T.);
#141=EDGE_CURVE('',#116,#117,#71,.T.);
#142=EDGE_CURVE('',#117,#118,#93,.T.);
#143=EDGE_CURVE('',#118,#117,#94,.T.);
#144=EDGE_CURVE('',#119,#119,#95,.T.);
#145=EDGE_CURVE('',#119,#118,#72,.T.);
#146=EDGE_CURVE('',#120,#120,#96,.T.);
#147=EDGE_CURVE('',#121,#121,#97,.T.);
#148=EDGE_CURVE('',#121,#115,#73,.T.);
#149=EDGE_CURVE('',#122,#122,#98,.T.);
#150=EDGE_CURVE('',#123,#123,#99,.T.);
#151=EDGE_CURVE('',#123,#111,#100,.T.);
#152=EDGE_CURVE('',#124,#124,#101,.T.);
#153=EDGE_CURVE('',#124,#125,#102,.T.);
#154=EDGE_CURVE('',#125,#125,#103,.T.);
#155=EDGE_CURVE('',#125,#126,#74,.T.);
#156=EDGE_CURVE('',#126,#126,#104,.T.);
#157=EDGE_CURVE('',#122,#119,#105,.T.);
#158=EDGE_CURVE('',#126,#120,#106,.T.);
#159=ORIENTED_EDGE('',*,*,#127,.T.);
#160=ORIENTED_EDGE('',*,*,#128,.T.);
#161=ORIENTED_EDGE('',*,*,#129,.T.);
#162=ORIENTED_EDGE('',*,*,#130,.T.);
#163=ORIENTED_EDGE('',*,*,#128,.F.);
#164=ORIENTED_EDGE('',*,*,#127,.F.);
#165=ORIENTED_EDGE('',*,*,#131,.F.);
#166=ORIENTED_EDGE('',*,*,#129,.F.);
#167=ORIENTED_EDGE('',*,*,#130,.F.);
#168=ORIENTED_EDGE('',*,*,#132,.T.);
#169=ORIENTED_EDGE('',*,*,#133,.F.);
#170=ORIENTED_EDGE('',*,*,#132,.F.);
#171=ORIENTED_EDGE('',*,*,#134,.T.);
#172=ORIENTED_EDGE('',*,*,#135,.T.);
#173=ORIENTED_EDGE('',*,*,#136,.T.);
#174=ORIENTED_EDGE('',*,*,#131,.T.);
#175=ORIENTED_EDGE('',*,*,#136,.F.);
#176=ORIENTED_EDGE('',*,*,#134,.F.);
#177=ORIENTED_EDGE('',*,*,#135,.F.);
#178=ORIENTED_EDGE('',*,*,#137,.T.);
#179=ORIENTED_EDGE('',*,*,#138,.F.);
#180=ORIENTED_EDGE('',*,*,#139,.F.);
#181=ORIENTED_EDGE('',*,*,#137,.F.);
#182=ORIENTED_EDGE('',*,*,#140,.T.);
#183=ORIENTED_EDGE('',*,*,#141,.T.);
#184=ORIENTED_EDGE('',*,*,#142,.T.);
#185=ORIENTED_EDGE('',*,*,#143,.T.);
#186=ORIENTED_EDGE('',*,*,#141,.F.);
#187=ORIENTED_EDGE('',*,*,#144,.F.);
#188=ORIENTED_EDGE('',*,*,#145,.T.);
#189=ORIENTED_EDGE('',*,*,#142,.F.);
#190=ORIENTED_EDGE('',*,*,#143,.F.);
#191=ORIENTED_EDGE('',*,*,#145,.F.);
#192=ORIENTED_EDGE('',*,*,#146,.F.);
#193=ORIENTED_EDGE('',*,*,#140,.F.);
#194=ORIENTED_EDGE('',*,*,#147,.T.);
#195=ORIENTED_EDGE('',*,*,#148,.T.);
#196=ORIENTED_EDGE('',*,*,#138,.T.);
#197=ORIENTED_EDGE('',*,*,#139,.T.);
#198=ORIENTED_EDGE('',*,*,#148,.F.);
#199=ORIENTED_EDGE('',*,*,#149,.F.);
#200=ORIENTED_EDGE('',*,*,#147,.F.);
#201=ORIENTED_EDGE('',*,*,#150,.T.);
#202=ORIENTED_EDGE('',*,*,#151,.T.);
#203=ORIENTED_EDGE('',*,*,#133,.T.);
#204=ORIENTED_EDGE('',*,*,#151,.F.);
#205=ORIENTED_EDGE('',*,*,#152,.F.);
#206=ORIENTED_EDGE('',*,*,#150,.F.);
#207=ORIENTED_EDGE('',*,*,#152,.T.);
#208=ORIENTED_EDGE('',*,*,#153,.T.);
#209=ORIENTED_EDGE('',*,*,#154,.T.);
#210=ORIENTED_EDGE('',*,*,#153,.F.);
#211=ORIENTED_EDGE('',*,*,#154,.F.);
#212=ORIENTED_EDGE('',*,*,#155,.T.);
#213=ORIENTED_EDGE('',*,*,#156,.F.);
#214=ORIENTED_EDGE('',*,*,#155,.F.);
#215=ORIENTED_EDGE('',*,*,#149,.T.);
#216=ORIENTED_EDGE('',*,*,#157,.T.);
#217=ORIENTED_EDGE('',*,*,#144,.T.);
#218=ORIENTED_EDGE('',*,*,#157,.F.);
#219=ORIENTED_EDGE('',*,*,#156,.T.);
#220=ORIENTED_EDGE('',*,*,#158,.T.);
#221=ORIENTED_EDGE('',*,*,#146,.T.);
#222=ORIENTED_EDGE('',*,*,#158,.F.);
#223=CONICAL_SURFACE('',#257,10.25,0.785398163397448);
#224=CONICAL_SURFACE('',#265,4.75,0.785398163397447);
#225=CONICAL_SURFACE('',#271,10.5,0.785398163397448);
#226=CONICAL_SURFACE('',#279,4.75,0.785398163397449);
#227=ADVANCED_FACE('',(#31),#223,.T.);
#228=ADVANCED_FACE('',(#32,#23),#27,.T.);
#229=ADVANCED_FACE('',(#33),#19,.T.);
#230=ADVANCED_FACE('',(#34),#224,.F.);
#231=ADVANCED_FACE('',(#35),#20,.F.);
#232=ADVANCED_FACE('',(#36),#225,.F.);
#233=ADVANCED_FACE('',(#37),#21,.F.);
#234=ADVANCED_FACE('',(#38,#24),#28,.T.);
#235=ADVANCED_FACE('',(#39),#226,.F.);
#236=ADVANCED_FACE('',(#40,#25),#29,.T.);
#237=ADVANCED_FACE('',(#41),#15,.F.);
#238=ADVANCED_FACE('',(#42,#26),#30,.T.);
#239=ADVANCED_FACE('',(#43),#16,.T.);
#240=ADVANCED_FACE('',(#44),#22,.T.);
#241=ADVANCED_FACE('',(#45),#17,.F.);
#242=ADVANCED_FACE('',(#46),#18,.T.);
#243=CLOSED_SHELL('',(#227,#228,#229,#230,#231,#232,#233,#234,#235,#236,
#237,#238,#239,#240,#241,#242));
#244=DERIVED_UNIT_ELEMENT(#246,1.);
#245=DERIVED_UNIT_ELEMENT(#461,-3.);
#246=(
MASS_UNIT()
NAMED_UNIT(*)
SI_UNIT(.KILO.,.GRAM.)
);
#247=DERIVED_UNIT((#244,#245));
#248=MEASURE_REPRESENTATION_ITEM('density measure',
POSITIVE_RATIO_MEASURE(7850.),#247);
#249=PROPERTY_DEFINITION_REPRESENTATION(#254,#251);
#250=PROPERTY_DEFINITION_REPRESENTATION(#255,#252);
#251=REPRESENTATION('material name',(#253),#458);
#252=REPRESENTATION('density',(#248),#458);
#253=DESCRIPTIVE_REPRESENTATION_ITEM('Acier','Acier');
#254=PROPERTY_DEFINITION('material property','material name',#468);
#255=PROPERTY_DEFINITION('material property','density of part',#468);
#256=AXIS2_PLACEMENT_3D('',#387,#297,#298);
#257=AXIS2_PLACEMENT_3D('',#388,#299,#300);
#258=AXIS2_PLACEMENT_3D('',#390,#301,#302);
#259=AXIS2_PLACEMENT_3D('',#394,#304,#305);
#260=AXIS2_PLACEMENT_3D('',#395,#306,#307);
#261=AXIS2_PLACEMENT_3D('',#396,#308,#309);
#262=AXIS2_PLACEMENT_3D('',#398,#310,#311);
#263=AXIS2_PLACEMENT_3D('',#399,#312,#313);
#264=AXIS2_PLACEMENT_3D('',#402,#315,#316);
#265=AXIS2_PLACEMENT_3D('',#403,#317,#318);
#266=AXIS2_PLACEMENT_3D('',#406,#319,#320);
#267=AXIS2_PLACEMENT_3D('',#407,#321,#322);
#268=AXIS2_PLACEMENT_3D('',#409,#324,#325);
#269=AXIS2_PLACEMENT_3D('',#413,#327,#328);
#270=AXIS2_PLACEMENT_3D('',#414,#329,#330);
#271=AXIS2_PLACEMENT_3D('',#415,#331,#332);
#272=AXIS2_PLACEMENT_3D('',#417,#333,#334);
#273=AXIS2_PLACEMENT_3D('',#421,#336,#337);
#274=AXIS2_PLACEMENT_3D('',#422,#338,#339);
#275=AXIS2_PLACEMENT_3D('',#423,#340,#341);
#276=AXIS2_PLACEMENT_3D('',#425,#342,#343);
#277=AXIS2_PLACEMENT_3D('',#427,#345,#346);
#278=AXIS2_PLACEMENT_3D('',#429,#347,#348);
#279=AXIS2_PLACEMENT_3D('',#430,#349,#350);
#280=AXIS2_PLACEMENT_3D('',#432,#351,#352);
#281=AXIS2_PLACEMENT_3D('',#434,#354,#355);
#282=AXIS2_PLACEMENT_3D('',#436,#356,#357);
#283=AXIS2_PLACEMENT_3D('',#437,#358,#359);
#284=AXIS2_PLACEMENT_3D('',#439,#360,#361);
#285=AXIS2_PLACEMENT_3D('',#440,#362,#363);
#286=AXIS2_PLACEMENT_3D('',#441,#364,#365);
#287=AXIS2_PLACEMENT_3D('',#443,#366,#367);
#288=AXIS2_PLACEMENT_3D('',#444,#368,#369);
#289=AXIS2_PLACEMENT_3D('',#446,#370,#371);
#290=AXIS2_PLACEMENT_3D('',#447,#372,#373);
#291=AXIS2_PLACEMENT_3D('',#448,#374,#375);
#292=AXIS2_PLACEMENT_3D('',#451,#377,#378);
#293=AXIS2_PLACEMENT_3D('',#452,#379,#380);
#294=AXIS2_PLACEMENT_3D('',#453,#381,#382);
#295=AXIS2_PLACEMENT_3D('',#454,#383,#384);
#296=AXIS2_PLACEMENT_3D('',#455,#385,#386);
#297=DIRECTION('axis',(0.,0.,1.));
#298=DIRECTION('refdir',(1.,0.,0.));
#299=DIRECTION('center_axis',(1.,0.,0.));
#300=DIRECTION('ref_axis',(0.,0.,-1.));
#301=DIRECTION('center_axis',(1.,0.,0.));
#302=DIRECTION('ref_axis',(0.,0.,-1.));
#303=DIRECTION('',(0.707106781186548,8.65956056235493E-17,0.707106781186548));
#304=DIRECTION('center_axis',(-1.,0.,0.));
#305=DIRECTION('ref_axis',(0.,0.,-1.));
#306=DIRECTION('center_axis',(-1.,0.,0.));
#307=DIRECTION('ref_axis',(0.,0.,-1.));
#308=DIRECTION('center_axis',(-1.,0.,0.));
#309=DIRECTION('ref_axis',(0.,0.,1.));
#310=DIRECTION('center_axis',(-1.,0.,0.));
#311=DIRECTION('ref_axis',(0.,0.,-1.));
#312=DIRECTION('center_axis',(-1.,0.,0.));
#313=DIRECTION('ref_axis',(0.,0.,1.));
#314=DIRECTION('',(1.,0.,0.));
#315=DIRECTION('center_axis',(1.,0.,0.));
#316=DIRECTION('ref_axis',(0.,1.22464679914735E-16,-1.));
#317=DIRECTION('center_axis',(-1.,0.,0.));
#318=DIRECTION('ref_axis',(0.,0.,-1.));
#319=DIRECTION('center_axis',(1.,0.,0.));
#320=DIRECTION('ref_axis',(0.,0.,-1.));
#321=DIRECTION('center_axis',(1.,0.,0.));
#322=DIRECTION('ref_axis',(0.,0.,-1.));
#323=DIRECTION('',(-0.707106781186548,-8.65956056235492E-17,0.707106781186547));
#324=DIRECTION('center_axis',(-1.,0.,0.));
#325=DIRECTION('ref_axis',(0.,0.,1.));
#326=DIRECTION('',(1.,0.,0.));
#327=DIRECTION('center_axis',(-1.,0.,0.));
#328=DIRECTION('ref_axis',(0.,0.,-1.));
#329=DIRECTION('center_axis',(-1.,0.,0.));
#330=DIRECTION('ref_axis',(0.,0.,-1.));
#331=DIRECTION('center_axis',(1.,0.,0.));
#332=DIRECTION('ref_axis',(0.,0.,-1.));
#333=DIRECTION('center_axis',(1.,0.,0.));
#334=DIRECTION('ref_axis',(0.,0.,-1.));
#335=DIRECTION('',(-0.707106781186547,8.65956056235493E-17,-0.707106781186547));
#336=DIRECTION('center_axis',(-1.,0.,0.));
#337=DIRECTION('ref_axis',(0.,0.,-1.));
#338=DIRECTION('center_axis',(-1.,0.,0.));
#339=DIRECTION('ref_axis',(0.,0.,-1.));
#340=DIRECTION('center_axis',(-1.,0.,0.));
#341=DIRECTION('ref_axis',(0.,0.,1.));
#342=DIRECTION('center_axis',(1.,0.,0.));
#343=DIRECTION('ref_axis',(0.,1.22464679914735E-16,-1.));
#344=DIRECTION('',(1.,0.,0.));
#345=DIRECTION('center_axis',(1.,0.,0.));
#346=DIRECTION('ref_axis',(0.,0.,-1.));
#347=DIRECTION('center_axis',(-1.,0.,0.));
#348=DIRECTION('ref_axis',(0.,1.22464679914735E-16,-1.));
#349=DIRECTION('center_axis',(1.,0.,0.));
#350=DIRECTION('ref_axis',(0.,0.,-1.));
#351=DIRECTION('center_axis',(1.,0.,0.));
#352=DIRECTION('ref_axis',(0.,0.,-1.));
#353=DIRECTION('',(-0.707106781186547,8.65956056235494E-17,-0.707106781186548));
#354=DIRECTION('center_axis',(1.,0.,0.));
#355=DIRECTION('ref_axis',(0.,0.,-1.));
#356=DIRECTION('center_axis',(-1.,0.,0.));
#357=DIRECTION('ref_axis',(0.,1.22464679914735E-16,-1.));
#358=DIRECTION('center_axis',(-1.,0.,0.));
#359=DIRECTION('ref_axis',(0.,0.,1.));
#360=DIRECTION('center_axis',(-1.,0.,0.));
#361=DIRECTION('ref_axis',(0.,1.22464679914735E-16,-1.));
#362=DIRECTION('center_axis',(0.,-1.,1.22464679914735E-16));
#363=DIRECTION('ref_axis',(0.,-1.22464679914735E-16,-1.));
#364=DIRECTION('center_axis',(-1.,0.,0.));
#365=DIRECTION('ref_axis',(0.,0.,1.));
#366=DIRECTION('center_axis',(1.,0.,0.));
#367=DIRECTION('ref_axis',(0.,1.22464679914735E-16,-1.));
#368=DIRECTION('center_axis',(-1.,0.,0.));
#369=DIRECTION('ref_axis',(0.,0.,1.));
#370=DIRECTION('center_axis',(0.,-1.,1.22464679914735E-16));
#371=DIRECTION('ref_axis',(0.,-1.22464679914735E-16,-1.));
#372=DIRECTION('center_axis',(-1.,0.,0.));
#373=DIRECTION('ref_axis',(0.,1.22464679914735E-16,-1.));
#374=DIRECTION('center_axis',(-1.,0.,0.));
#375=DIRECTION('ref_axis',(0.,0.,1.));
#376=DIRECTION('',(1.,0.,0.));
#377=DIRECTION('center_axis',(1.,0.,0.));
#378=DIRECTION('ref_axis',(0.,1.22464679914735E-16,-1.));
#379=DIRECTION('center_axis',(-1.,0.,0.));
#380=DIRECTION('ref_axis',(0.,0.,1.));
#381=DIRECTION('center_axis',(0.,-1.,1.22464679914735E-16));
#382=DIRECTION('ref_axis',(0.,-1.22464679914735E-16,-1.));
#383=DIRECTION('center_axis',(-1.,0.,0.));
#384=DIRECTION('ref_axis',(0.,0.,1.));
#385=DIRECTION('center_axis',(0.,-1.,1.22464679914735E-16));
#386=DIRECTION('ref_axis',(0.,-1.22464679914735E-16,-1.));
#387=CARTESIAN_POINT('',(0.,0.,0.));
#388=CARTESIAN_POINT('Origin',(0.5,0.,0.));
#389=CARTESIAN_POINT('',(0.,-1.19403062916867E-15,9.75));
#390=CARTESIAN_POINT('Origin',(0.,0.,0.));
#391=CARTESIAN_POINT('',(1.,1.3164953090834E-15,10.75));
#392=CARTESIAN_POINT('',(0.5,1.25526296912604E-15,10.25));
#393=CARTESIAN_POINT('',(1.,-1.3164953090834E-15,-10.75));
#394=CARTESIAN_POINT('Origin',(1.,0.,0.));
#395=CARTESIAN_POINT('Origin',(1.,0.,0.));
#396=CARTESIAN_POINT('Origin',(0.,0.,4.25));
#397=CARTESIAN_POINT('',(0.,6.42939569552361E-16,5.25));
#398=CARTESIAN_POINT('Origin',(0.,0.,0.));
#399=CARTESIAN_POINT('Origin',(5.,0.,0.));
#400=CARTESIAN_POINT('',(9.5,-1.3164953090834E-15,-10.75));
#401=CARTESIAN_POINT('',(5.,-1.3164953090834E-15,-10.75));
#402=CARTESIAN_POINT('Origin',(9.5,0.,0.));
#403=CARTESIAN_POINT('Origin',(0.5,0.,0.));
#404=CARTESIAN_POINT('',(1.,-5.20474889637625E-16,4.25));
#405=CARTESIAN_POINT('',(1.,-5.20474889637625E-16,-4.25));
#406=CARTESIAN_POINT('Origin',(1.,0.,0.));
#407=CARTESIAN_POINT('Origin',(1.,0.,0.));
#408=CARTESIAN_POINT('',(0.5,-5.81707229594993E-16,4.75));
#409=CARTESIAN_POINT('Origin',(12.5,0.,0.));
#410=CARTESIAN_POINT('',(24.,-5.20474889637625E-16,-4.25));
#411=CARTESIAN_POINT('',(12.5,-5.20474889637625E-16,-4.25));
#412=CARTESIAN_POINT('',(24.,5.20474889637625E-16,4.25));
#413=CARTESIAN_POINT('Origin',(24.,0.,0.));
#414=CARTESIAN_POINT('Origin',(24.,0.,0.));
#415=CARTESIAN_POINT('Origin',(39.5,0.,0.));
#416=CARTESIAN_POINT('',(40.,-1.34711147906209E-15,11.));
#417=CARTESIAN_POINT('Origin',(40.,0.,0.));
#418=CARTESIAN_POINT('',(39.,1.22464679914735E-15,10.));
#419=CARTESIAN_POINT('',(39.5,-1.28587913910472E-15,10.5));
#420=CARTESIAN_POINT('',(39.,-1.22464679914735E-15,-10.));
#421=CARTESIAN_POINT('Origin',(39.,0.,0.));
#422=CARTESIAN_POINT('Origin',(39.,0.,0.));
#423=CARTESIAN_POINT('Origin',(32.5,0.,0.));
#424=CARTESIAN_POINT('',(25.5,-1.22464679914735E-15,-10.));
#425=CARTESIAN_POINT('Origin',(25.5,0.,0.));
#426=CARTESIAN_POINT('',(32.5,-1.22464679914735E-15,-10.));
#427=CARTESIAN_POINT('Origin',(40.,0.,17.));
#428=CARTESIAN_POINT('',(40.,-1.46957615897682E-15,-12.));
#429=CARTESIAN_POINT('Origin',(40.,0.,0.));
#430=CARTESIAN_POINT('Origin',(24.5,0.,0.));
#431=CARTESIAN_POINT('',(25.,-6.42939569552361E-16,5.25));
#432=CARTESIAN_POINT('Origin',(25.,0.,0.));
#433=CARTESIAN_POINT('',(24.5,-5.81707229594993E-16,4.75));
#434=CARTESIAN_POINT('Origin',(25.,0.,10.));
#435=CARTESIAN_POINT('',(25.,-1.16341445918999E-15,-9.5));
#436=CARTESIAN_POINT('Origin',(25.,0.,0.));
#437=CARTESIAN_POINT('Origin',(9.5,0.,0.));
#438=CARTESIAN_POINT('',(10.,-1.37772764904077E-15,-11.25));
#439=CARTESIAN_POINT('Origin',(10.,0.,0.));
#440=CARTESIAN_POINT('Origin',(9.5,-1.37772764904077E-15,-11.25));
#441=CARTESIAN_POINT('Origin',(10.,0.,10.75));
#442=CARTESIAN_POINT('',(10.,-2.02066721859313E-15,-16.5));
#443=CARTESIAN_POINT('Origin',(10.,0.,0.));
#444=CARTESIAN_POINT('Origin',(10.5,0.,0.));
#445=CARTESIAN_POINT('',(10.5,-2.0818995585505E-15,-17.));
#446=CARTESIAN_POINT('Origin',(10.5,-2.02066721859313E-15,-16.5));
#447=CARTESIAN_POINT('Origin',(10.5,0.,0.));
#448=CARTESIAN_POINT('Origin',(25.,0.,0.));
#449=CARTESIAN_POINT('',(35.,-2.0818995585505E-15,-17.));
#450=CARTESIAN_POINT('',(25.,-2.0818995585505E-15,-17.));
#451=CARTESIAN_POINT('Origin',(35.,0.,0.));
#452=CARTESIAN_POINT('Origin',(25.5,0.,0.));
#453=CARTESIAN_POINT('Origin',(25.5,-1.16341445918999E-15,-9.5));
#454=CARTESIAN_POINT('Origin',(35.,0.,0.));
#455=CARTESIAN_POINT('Origin',(35.,-1.46957615897682E-15,-12.));
#456=UNCERTAINTY_MEASURE_WITH_UNIT(LENGTH_MEASURE(0.01),#460,
'DISTANCE_ACCURACY_VALUE',
'Maximum model space distance between geometric entities at asserted c
onnectivities');
#457=UNCERTAINTY_MEASURE_WITH_UNIT(LENGTH_MEASURE(0.01),#460,
'DISTANCE_ACCURACY_VALUE',
'Maximum model space distance between geometric entities at asserted c
onnectivities');
#458=(
GEOMETRIC_REPRESENTATION_CONTEXT(3)
GLOBAL_UNCERTAINTY_ASSIGNED_CONTEXT((#456))
GLOBAL_UNIT_ASSIGNED_CONTEXT((#460,#462,#463))
REPRESENTATION_CONTEXT('','3D')
);
#459=(
GEOMETRIC_REPRESENTATION_CONTEXT(3)
GLOBAL_UNCERTAINTY_ASSIGNED_CONTEXT((#457))
GLOBAL_UNIT_ASSIGNED_CONTEXT((#460,#462,#463))
REPRESENTATION_CONTEXT('','3D')
);
#460=(
LENGTH_UNIT()
NAMED_UNIT(*)
SI_UNIT(.MILLI.,.METRE.)
);
#461=(
LENGTH_UNIT()
NAMED_UNIT(*)
SI_UNIT($,.METRE.)
);
#462=(
NAMED_UNIT(*)
PLANE_ANGLE_UNIT()
SI_UNIT($,.RADIAN.)
);
#463=(
NAMED_UNIT(*)
SI_UNIT($,.STERADIAN.)
SOLID_ANGLE_UNIT()
);
#464=SHAPE_DEFINITION_REPRESENTATION(#465,#466);
#465=PRODUCT_DEFINITION_SHAPE('',$,#468);
#466=SHAPE_REPRESENTATION('',(#256),#458);
#467=PRODUCT_DEFINITION_CONTEXT('part definition',#472,'design');
#468=PRODUCT_DEFINITION('EMBOUT GUIDON TRACER 7',
'EMBOUT GUIDON TRACER 7 v8',#469,#467);
#469=PRODUCT_DEFINITION_FORMATION('',$,#474);
#470=PRODUCT_RELATED_PRODUCT_CATEGORY('EMBOUT GUIDON TRACER 7 v8',
'EMBOUT GUIDON TRACER 7 v8',(#474));
#471=APPLICATION_PROTOCOL_DEFINITION('international standard',
'ap242_managed_model_based_3d_engineering',2011,#472);
#472=APPLICATION_CONTEXT('Managed model based 3d engineering');
#473=PRODUCT_CONTEXT('part definition',#472,'mechanical');
#474=PRODUCT('EMBOUT GUIDON TRACER 7','EMBOUT GUIDON TRACER 7 v8',$,(#473));
#475=PRESENTATION_STYLE_ASSIGNMENT((#476));
#476=SURFACE_STYLE_USAGE(.BOTH.,#477);
#477=SURFACE_SIDE_STYLE('',(#478));
#478=SURFACE_STYLE_FILL_AREA(#479);
#479=FILL_AREA_STYLE('Acier - Satin\X\E9',(#480));
#480=FILL_AREA_STYLE_COLOUR('Acier - Satin\X\E9',#481);
#481=COLOUR_RGB('Acier - Satin\X\E9',0.627450980392157,0.627450980392157,
0.627450980392157);
ENDSEC;
END-ISO-10303-21;
