ISO-10303-21;
HEADER;
/* Generated by software containing ST-Developer
 * from STEP Tools, Inc. (www.steptools.com) 
 */
/* OPTION: using custom renumber hook */

FILE_DESCRIPTION(
/* description */ ('STEP AP242',
'CAx-IF Rec.Pracs.---Representation and Presentation of Product Manufa
cturing Information (PMI)---4.0---2014-10-13',
'CAx-IF Rec.Pracs.---3D Tessellated Geometry---0.4---2014-09-14','2;1'),

/* implementation_level */ '2;1');

FILE_NAME(
/* name */ '674c6c201273f210938dd035',
/* time_stamp */ '2024-12-01T14:01:05Z',
/* author */ (''),
/* organization */ (''),
/* preprocessor_version */ 'ST-DEVELOPER v20',
/* originating_system */ 'ONSHAPE BY PTC INC, 1.190',
/* authorisation */ '  ');

FILE_SCHEMA (('AP242_MANAGED_MODEL_BASED_3D_ENGINEERING_MIM_LF { 1 0 10303 442 1 1 4 }'));
ENDSEC;

DATA;
#10=SHAPE_REPRESENTATION_RELATIONSHIP('','',#233,#11);
#11=ADVANCED_BREP_SHAPE_REPRESENTATION('',(#231),#447);
#12=PLANE('',#250);
#13=PLANE('',#251);
#14=PLANE('',#253);
#15=PLANE('',#256);
#16=PLANE('',#260);
#17=VERTEX_LOOP('',#87);
#18=VERTEX_LOOP('',#90);
#19=VERTEX_LOOP('',#93);
#20=VERTEX_LOOP('',#106);
#21=CONICAL_SURFACE('',#237,0.0026,1.02974425867665);
#22=CONICAL_SURFACE('',#240,0.0026,1.02974425867665);
#23=CONICAL_SURFACE('',#243,0.0026,1.02974425867665);
#24=CONICAL_SURFACE('',#264,0.0026,1.02974425867665);
#25=B_SPLINE_CURVE_WITH_KNOTS('',3,(#331,#332,#333,#334,#335,#336,#337,
#338,#339,#340,#341),.UNSPECIFIED.,.T.,.F.,(1,1,1,1,1,1,1,1,1,1,1,1,1,1,
1),(-0.00612216810022709,-0.00408144540015139,-0.0020407227000757,7.64635682075325E-19,
0.0020407227000757,0.00408144540015139,0.00612216810022709,0.00816289080030278,
0.0102036135003785,0.0122443362004542,0.0142850589005299,0.0163257816006056,
0.0183665043006813,0.020407227000757,0.0224479497008327),.UNSPECIFIED.);
#26=B_SPLINE_CURVE_WITH_KNOTS('',3,(#348,#349,#350,#351,#352,#353,#354,
#355,#356,#357,#358),.UNSPECIFIED.,.T.,.F.,(1,1,1,1,1,1,1,1,1,1,1,1,1,1,
1),(-0.00612216810022709,-0.00408144540015139,-0.0020407227000757,7.64635682075328E-19,
0.0020407227000757,0.00408144540015139,0.00612216810022709,0.00816289080030278,
0.0102036135003785,0.0122443362004542,0.0142850589005299,0.0163257816006056,
0.0183665043006813,0.020407227000757,0.0224479497008327),.UNSPECIFIED.);
#27=B_SPLINE_CURVE_WITH_KNOTS('',3,(#365,#366,#367,#368,#369,#370,#371,
#372,#373,#374,#375),.UNSPECIFIED.,.T.,.F.,(1,1,1,1,1,1,1,1,1,1,1,1,1,1,
1),(-0.00612216810022709,-0.00408144540015139,-0.0020407227000757,7.64635682075326E-19,
0.0020407227000757,0.00408144540015139,0.00612216810022709,0.00816289080030278,
0.0102036135003785,0.0122443362004542,0.0142850589005299,0.0163257816006056,
0.0183665043006813,0.020407227000757,0.0224479497008327),.UNSPECIFIED.);
#28=B_SPLINE_CURVE_WITH_KNOTS('',3,(#384,#385,#386,#387,#388,#389,#390,
#391,#392,#393,#394),.UNSPECIFIED.,.T.,.F.,(1,1,1,1,1,1,1,1,1,1,1,1,1,1,
1),(-0.00612216810022709,-0.00408144540015139,-0.0020407227000757,7.64635682075326E-19,
0.0020407227000757,0.00408144540015139,0.00612216810022709,0.00816289080030278,
0.0102036135003785,0.0122443362004542,0.0142850589005299,0.0163257816006056,
0.0183665043006813,0.020407227000757,0.0224479497008327),.UNSPECIFIED.);
#29=B_SPLINE_CURVE_WITH_KNOTS('',3,(#401,#402,#403,#404,#405,#406,#407,
#408,#409,#410,#411),.UNSPECIFIED.,.T.,.F.,(1,1,1,1,1,1,1,1,1,1,1,1,1,1,
1),(-0.0029428336487842,-0.00196188909918947,-0.000980944549594734,0.,0.000980944549594734,
0.00196188909918947,0.0029428336487842,0.00392377819837894,0.00490472274797367,
0.0058856672975684,0.00686661184716314,0.00784755639675787,0.00882850094635261,
0.00980944549594734,0.0107903900455421),.UNSPECIFIED.);
#30=B_SPLINE_CURVE_WITH_KNOTS('',3,(#413,#414,#415,#416,#417,#418,#419,
#420,#421,#422,#423),.UNSPECIFIED.,.T.,.F.,(1,1,1,1,1,1,1,1,1,1,1,1,1,1,
1),(-0.00294286331756218,-0.00196190887837479,-0.000980954439187393,1.63164446200351E-19,
0.000980954439187393,0.00196190887837479,0.00294286331756218,0.00392381775674957,
0.00490477219593697,0.00588572663512436,0.00686668107431175,0.00784763551349914,
0.00882858995268654,0.00980954439187393,0.0107904988310613),
 .UNSPECIFIED.);
#31=ORIENTED_EDGE('',*,*,#67,.T.);
#32=ORIENTED_EDGE('',*,*,#68,.T.);
#33=ORIENTED_EDGE('',*,*,#67,.F.);
#34=ORIENTED_EDGE('',*,*,#69,.T.);
#35=ORIENTED_EDGE('',*,*,#70,.T.);
#36=ORIENTED_EDGE('',*,*,#69,.F.);
#37=ORIENTED_EDGE('',*,*,#71,.T.);
#38=ORIENTED_EDGE('',*,*,#72,.T.);
#39=ORIENTED_EDGE('',*,*,#71,.F.);
#40=ORIENTED_EDGE('',*,*,#68,.F.);
#41=ORIENTED_EDGE('',*,*,#70,.F.);
#42=ORIENTED_EDGE('',*,*,#72,.F.);
#43=ORIENTED_EDGE('',*,*,#73,.F.);
#44=ORIENTED_EDGE('',*,*,#74,.T.);
#45=ORIENTED_EDGE('',*,*,#75,.F.);
#46=ORIENTED_EDGE('',*,*,#76,.F.);
#47=ORIENTED_EDGE('',*,*,#77,.T.);
#48=ORIENTED_EDGE('',*,*,#78,.F.);
#49=ORIENTED_EDGE('',*,*,#79,.F.);
#50=ORIENTED_EDGE('',*,*,#77,.F.);
#51=ORIENTED_EDGE('',*,*,#80,.F.);
#52=ORIENTED_EDGE('',*,*,#73,.T.);
#53=ORIENTED_EDGE('',*,*,#76,.T.);
#54=ORIENTED_EDGE('',*,*,#74,.F.);
#55=ORIENTED_EDGE('',*,*,#81,.F.);
#56=ORIENTED_EDGE('',*,*,#80,.T.);
#57=ORIENTED_EDGE('',*,*,#82,.F.);
#58=ORIENTED_EDGE('',*,*,#81,.T.);
#59=ORIENTED_EDGE('',*,*,#83,.F.);
#60=ORIENTED_EDGE('',*,*,#82,.T.);
#61=ORIENTED_EDGE('',*,*,#83,.T.);
#62=ORIENTED_EDGE('',*,*,#78,.T.);
#63=ORIENTED_EDGE('',*,*,#79,.T.);
#64=ORIENTED_EDGE('',*,*,#84,.T.);
#65=ORIENTED_EDGE('',*,*,#75,.T.);
#66=ORIENTED_EDGE('',*,*,#84,.F.);
#67=EDGE_CURVE('',#85,#85,#107,.T.);
#68=EDGE_CURVE('',#86,#86,#25,.T.);
#69=EDGE_CURVE('',#88,#88,#108,.T.);
#70=EDGE_CURVE('',#89,#89,#26,.T.);
#71=EDGE_CURVE('',#91,#91,#109,.T.);
#72=EDGE_CURVE('',#92,#92,#27,.T.);
#73=EDGE_CURVE('',#94,#94,#110,.T.);
#74=EDGE_CURVE('',#95,#95,#111,.T.);
#75=EDGE_CURVE('',#96,#96,#28,.T.);
#76=EDGE_CURVE('',#97,#97,#112,.T.);
#77=EDGE_CURVE('',#98,#98,#113,.T.);
#78=EDGE_CURVE('',#99,#99,#29,.T.);
#79=EDGE_CURVE('',#100,#100,#30,.T.);
#80=EDGE_CURVE('',#101,#101,#114,.T.);
#81=EDGE_CURVE('',#102,#102,#115,.T.);
#82=EDGE_CURVE('',#103,#103,#116,.T.);
#83=EDGE_CURVE('',#104,#104,#117,.T.);
#84=EDGE_CURVE('',#105,#105,#118,.T.);
#85=VERTEX_POINT('',#330);
#86=VERTEX_POINT('',#342);
#87=VERTEX_POINT('',#344);
#88=VERTEX_POINT('',#347);
#89=VERTEX_POINT('',#359);
#90=VERTEX_POINT('',#361);
#91=VERTEX_POINT('',#364);
#92=VERTEX_POINT('',#376);
#93=VERTEX_POINT('',#378);
#94=VERTEX_POINT('',#381);
#95=VERTEX_POINT('',#383);
#96=VERTEX_POINT('',#395);
#97=VERTEX_POINT('',#398);
#98=VERTEX_POINT('',#400);
#99=VERTEX_POINT('',#412);
#100=VERTEX_POINT('',#424);
#101=VERTEX_POINT('',#428);
#102=VERTEX_POINT('',#432);
#103=VERTEX_POINT('',#435);
#104=VERTEX_POINT('',#438);
#105=VERTEX_POINT('',#443);
#106=VERTEX_POINT('',#445);
#107=CIRCLE('',#236,0.0026);
#108=CIRCLE('',#239,0.0026);
#109=CIRCLE('',#242,0.0026);
#110=CIRCLE('',#245,0.01);
#111=CIRCLE('',#246,0.01);
#112=CIRCLE('',#248,0.0049);
#113=CIRCLE('',#249,0.0049);
#114=CIRCLE('',#252,0.00375);
#115=CIRCLE('',#255,0.00375);
#116=CIRCLE('',#257,0.003);
#117=CIRCLE('',#259,0.003);
#118=CIRCLE('',#263,0.0026);
#119=EDGE_LOOP('',(#31));
#120=EDGE_LOOP('',(#32));
#121=EDGE_LOOP('',(#33));
#122=EDGE_LOOP('',(#34));
#123=EDGE_LOOP('',(#35));
#124=EDGE_LOOP('',(#36));
#125=EDGE_LOOP('',(#37));
#126=EDGE_LOOP('',(#38));
#127=EDGE_LOOP('',(#39));
#128=EDGE_LOOP('',(#40));
#129=EDGE_LOOP('',(#41));
#130=EDGE_LOOP('',(#42));
#131=EDGE_LOOP('',(#43));
#132=EDGE_LOOP('',(#44));
#133=EDGE_LOOP('',(#45));
#134=EDGE_LOOP('',(#46));
#135=EDGE_LOOP('',(#47));
#136=EDGE_LOOP('',(#48));
#137=EDGE_LOOP('',(#49));
#138=EDGE_LOOP('',(#50));
#139=EDGE_LOOP('',(#51));
#140=EDGE_LOOP('',(#52));
#141=EDGE_LOOP('',(#53));
#142=EDGE_LOOP('',(#54));
#143=EDGE_LOOP('',(#55));
#144=EDGE_LOOP('',(#56));
#145=EDGE_LOOP('',(#57));
#146=EDGE_LOOP('',(#58));
#147=EDGE_LOOP('',(#59));
#148=EDGE_LOOP('',(#60));
#149=EDGE_LOOP('',(#61));
#150=EDGE_LOOP('',(#62));
#151=EDGE_LOOP('',(#63));
#152=EDGE_LOOP('',(#64));
#153=EDGE_LOOP('',(#65));
#154=EDGE_LOOP('',(#66));
#155=FACE_BOUND('',#119,.T.);
#156=FACE_BOUND('',#120,.T.);
#157=FACE_BOUND('',#17,.T.);
#158=FACE_BOUND('',#121,.T.);
#159=FACE_BOUND('',#122,.T.);
#160=FACE_BOUND('',#123,.T.);
#161=FACE_BOUND('',#18,.T.);
#162=FACE_BOUND('',#124,.T.);
#163=FACE_BOUND('',#125,.T.);
#164=FACE_BOUND('',#126,.T.);
#165=FACE_BOUND('',#19,.T.);
#166=FACE_BOUND('',#127,.T.);
#167=FACE_BOUND('',#128,.T.);
#168=FACE_BOUND('',#129,.T.);
#169=FACE_BOUND('',#130,.T.);
#170=FACE_BOUND('',#131,.T.);
#171=FACE_BOUND('',#132,.T.);
#172=FACE_BOUND('',#133,.T.);
#173=FACE_BOUND('',#134,.T.);
#174=FACE_BOUND('',#135,.T.);
#175=FACE_BOUND('',#136,.T.);
#176=FACE_BOUND('',#137,.T.);
#177=FACE_BOUND('',#138,.T.);
#178=FACE_BOUND('',#139,.T.);
#179=FACE_BOUND('',#140,.T.);
#180=FACE_BOUND('',#141,.T.);
#181=FACE_BOUND('',#142,.T.);
#182=FACE_BOUND('',#143,.T.);
#183=FACE_BOUND('',#144,.T.);
#184=FACE_BOUND('',#145,.T.);
#185=FACE_BOUND('',#146,.T.);
#186=FACE_BOUND('',#147,.T.);
#187=FACE_BOUND('',#148,.T.);
#188=FACE_BOUND('',#149,.T.);
#189=FACE_BOUND('',#150,.T.);
#190=FACE_BOUND('',#151,.T.);
#191=FACE_BOUND('',#152,.T.);
#192=FACE_BOUND('',#153,.T.);
#193=FACE_BOUND('',#20,.T.);
#194=FACE_BOUND('',#154,.T.);
#195=CYLINDRICAL_SURFACE('',#235,0.0026);
#196=CYLINDRICAL_SURFACE('',#238,0.0026);
#197=CYLINDRICAL_SURFACE('',#241,0.0026);
#198=CYLINDRICAL_SURFACE('',#244,0.01);
#199=CYLINDRICAL_SURFACE('',#247,0.0049);
#200=CYLINDRICAL_SURFACE('',#254,0.00375);
#201=CYLINDRICAL_SURFACE('',#258,0.003);
#202=CYLINDRICAL_SURFACE('',#261,0.00125);
#203=CYLINDRICAL_SURFACE('',#262,0.0026);
#204=ADVANCED_FACE('',(#155,#156),#195,.F.);
#205=ADVANCED_FACE('',(#157,#158),#21,.F.);
#206=ADVANCED_FACE('',(#159,#160),#196,.F.);
#207=ADVANCED_FACE('',(#161,#162),#22,.F.);
#208=ADVANCED_FACE('',(#163,#164),#197,.F.);
#209=ADVANCED_FACE('',(#165,#166),#23,.F.);
#210=ADVANCED_FACE('',(#167,#168,#169,#170,#171,#172),#198,.T.);
#211=ADVANCED_FACE('',(#173,#174,#175,#176),#199,.T.);
#212=ADVANCED_FACE('',(#177),#12,.F.);
#213=ADVANCED_FACE('',(#178,#179),#13,.T.);
#214=ADVANCED_FACE('',(#180,#181),#14,.F.);
#215=ADVANCED_FACE('',(#182,#183),#200,.T.);
#216=ADVANCED_FACE('',(#184,#185),#15,.T.);
#217=ADVANCED_FACE('',(#186,#187),#201,.T.);
#218=ADVANCED_FACE('',(#188),#16,.T.);
#219=ADVANCED_FACE('',(#189,#190),#202,.F.);
#220=ADVANCED_FACE('',(#191,#192),#203,.F.);
#221=ADVANCED_FACE('',(#193,#194),#24,.F.);
#222=CLOSED_SHELL('',(#204,#205,#206,#207,#208,#209,#210,#211,#212,#213,
#214,#215,#216,#217,#218,#219,#220,#221));
#223=STYLED_ITEM('',(#224),#231);
#224=PRESENTATION_STYLE_ASSIGNMENT((#225));
#225=SURFACE_STYLE_USAGE(.BOTH.,#226);
#226=SURFACE_SIDE_STYLE('',(#227));
#227=SURFACE_STYLE_FILL_AREA(#228);
#228=FILL_AREA_STYLE('',(#229));
#229=FILL_AREA_STYLE_COLOUR('',#230);
#230=COLOUR_RGB('',0.615686274509804,0.811764705882353,0.929411764705882);
#231=MANIFOLD_SOLID_BREP('Part 1',#222);
#232=SHAPE_DEFINITION_REPRESENTATION(#452,#233);
#233=SHAPE_REPRESENTATION('Part 1',(#234),#447);
#234=AXIS2_PLACEMENT_3D('',#327,#265,#266);
#235=AXIS2_PLACEMENT_3D('',#328,#267,#268);
#236=AXIS2_PLACEMENT_3D('',#329,#269,#270);
#237=AXIS2_PLACEMENT_3D('',#343,#271,#272);
#238=AXIS2_PLACEMENT_3D('',#345,#273,#274);
#239=AXIS2_PLACEMENT_3D('',#346,#275,#276);
#240=AXIS2_PLACEMENT_3D('',#360,#277,#278);
#241=AXIS2_PLACEMENT_3D('',#362,#279,#280);
#242=AXIS2_PLACEMENT_3D('',#363,#281,#282);
#243=AXIS2_PLACEMENT_3D('',#377,#283,#284);
#244=AXIS2_PLACEMENT_3D('',#379,#285,#286);
#245=AXIS2_PLACEMENT_3D('',#380,#287,#288);
#246=AXIS2_PLACEMENT_3D('',#382,#289,#290);
#247=AXIS2_PLACEMENT_3D('',#396,#291,#292);
#248=AXIS2_PLACEMENT_3D('',#397,#293,#294);
#249=AXIS2_PLACEMENT_3D('',#399,#295,#296);
#250=AXIS2_PLACEMENT_3D('',#425,#297,#298);
#251=AXIS2_PLACEMENT_3D('',#426,#299,#300);
#252=AXIS2_PLACEMENT_3D('',#427,#301,#302);
#253=AXIS2_PLACEMENT_3D('',#429,#303,#304);
#254=AXIS2_PLACEMENT_3D('',#430,#305,#306);
#255=AXIS2_PLACEMENT_3D('',#431,#307,#308);
#256=AXIS2_PLACEMENT_3D('',#433,#309,#310);
#257=AXIS2_PLACEMENT_3D('',#434,#311,#312);
#258=AXIS2_PLACEMENT_3D('',#436,#313,#314);
#259=AXIS2_PLACEMENT_3D('',#437,#315,#316);
#260=AXIS2_PLACEMENT_3D('',#439,#317,#318);
#261=AXIS2_PLACEMENT_3D('',#440,#319,#320);
#262=AXIS2_PLACEMENT_3D('',#441,#321,#322);
#263=AXIS2_PLACEMENT_3D('',#442,#323,#324);
#264=AXIS2_PLACEMENT_3D('',#444,#325,#326);
#265=DIRECTION('',(0.,0.,1.));
#266=DIRECTION('',(1.,0.,0.));
#267=DIRECTION('',(1.,0.,1.83697019872103E-16));
#268=DIRECTION('',(1.83697019872103E-16,0.,-1.));
#269=DIRECTION('',(1.,0.,1.83697019872103E-16));
#270=DIRECTION('',(1.83697019872103E-16,0.,-1.));
#271=DIRECTION('',(-1.,0.,-1.83697019872103E-16));
#272=DIRECTION('',(-1.83697019872103E-16,0.,1.));
#273=DIRECTION('',(-1.22464679914735E-16,0.,1.));
#274=DIRECTION('',(1.,0.,1.22464679914735E-16));
#275=DIRECTION('',(-1.22464679914735E-16,0.,1.));
#276=DIRECTION('',(1.,0.,1.22464679914735E-16));
#277=DIRECTION('',(1.22464679914735E-16,0.,-1.));
#278=DIRECTION('',(-1.,0.,-1.22464679914735E-16));
#279=DIRECTION('',(-1.,0.,-6.12323399573677E-17));
#280=DIRECTION('',(-6.12323399573677E-17,0.,1.));
#281=DIRECTION('',(-1.,0.,-6.12323399573677E-17));
#282=DIRECTION('',(-6.12323399573677E-17,0.,1.));
#283=DIRECTION('',(1.,0.,6.12323399573677E-17));
#284=DIRECTION('',(6.12323399573677E-17,0.,-1.));
#285=DIRECTION('',(0.,1.,0.));
#286=DIRECTION('',(0.,0.,1.));
#287=DIRECTION('',(0.,-1.,0.));
#288=DIRECTION('',(0.,0.,-1.));
#289=DIRECTION('',(0.,-1.,0.));
#290=DIRECTION('',(0.,0.,-1.));
#291=DIRECTION('',(0.,1.,0.));
#292=DIRECTION('',(0.,0.,1.));
#293=DIRECTION('',(0.,-1.,0.));
#294=DIRECTION('',(0.,0.,-1.));
#295=DIRECTION('',(0.,-1.,0.));
#296=DIRECTION('',(0.,0.,-1.));
#297=DIRECTION('',(0.,-1.,0.));
#298=DIRECTION('',(1.,0.,0.));
#299=DIRECTION('',(0.,-1.,0.));
#300=DIRECTION('',(1.,0.,0.));
#301=DIRECTION('',(0.,-1.,0.));
#302=DIRECTION('',(0.,0.,-1.));
#303=DIRECTION('',(0.,-1.,0.));
#304=DIRECTION('',(1.,0.,0.));
#305=DIRECTION('',(0.,1.,0.));
#306=DIRECTION('',(0.,0.,1.));
#307=DIRECTION('',(0.,-1.,0.));
#308=DIRECTION('',(0.,0.,-1.));
#309=DIRECTION('',(0.,-1.,0.));
#310=DIRECTION('',(1.,0.,0.));
#311=DIRECTION('',(0.,-1.,0.));
#312=DIRECTION('',(0.,0.,-1.));
#313=DIRECTION('',(0.,1.,0.));
#314=DIRECTION('',(0.,0.,1.));
#315=DIRECTION('',(0.,-1.,0.));
#316=DIRECTION('',(0.,0.,-1.));
#317=DIRECTION('',(0.,-1.,0.));
#318=DIRECTION('',(1.,0.,0.));
#319=DIRECTION('',(0.,0.,-1.));
#320=DIRECTION('',(-1.,0.,0.));
#321=DIRECTION('',(0.,0.,-1.));
#322=DIRECTION('',(-1.,0.,0.));
#323=DIRECTION('',(0.,0.,-1.));
#324=DIRECTION('',(-1.,0.,0.));
#325=DIRECTION('',(0.,0.,1.));
#326=DIRECTION('',(1.,0.,0.));
#327=CARTESIAN_POINT('',(0.,0.,0.));
#328=CARTESIAN_POINT('',(-0.01,-0.015,-1.84742235977368E-18));
#329=CARTESIAN_POINT('',(-0.00465608616365865,-0.015,-8.65761313584476E-19));
#330=CARTESIAN_POINT('',(-0.00465608616365865,-0.015,-0.0026));
#331=CARTESIAN_POINT('',(-0.00983068320691213,-0.0170356401429168,-0.00203929595785611));
#332=CARTESIAN_POINT('',(-0.0100846045396845,-0.017882130442947,3.4572474199245E-7));
#333=CARTESIAN_POINT('',(-0.00983089863434978,-0.0170358380852952,0.00203791305888813));
#334=CARTESIAN_POINT('',(-0.00956864950462416,-0.0150030560415594,0.00288119429626984));
#335=CARTESIAN_POINT('',(-0.00983102118656365,-0.012961905510484,0.00203730657153603));
#336=CARTESIAN_POINT('',(-0.0100843893881259,-0.012119312273243,1.30128090187221E-6));
#337=CARTESIAN_POINT('',(-0.00983142089424838,-0.0129608468068688,-0.00203587828517101));
#338=CARTESIAN_POINT('',(-0.00956860334304824,-0.0149989917944297,-0.00288120598299166));
#339=CARTESIAN_POINT('',(-0.00983068320691213,-0.0170356401429168,-0.00203929595785611));
#340=CARTESIAN_POINT('',(-0.0100846045396845,-0.017882130442947,3.4572474199245E-7));
#341=CARTESIAN_POINT('',(-0.00983089863434978,-0.0170358380852952,0.00203791305888813));
#342=CARTESIAN_POINT('',(-0.01,-0.0176,-2.6242836904705E-18));
#343=CARTESIAN_POINT('',(-0.00465608616365865,-0.015,-8.65761313584476E-19));
#344=CARTESIAN_POINT('',(-0.003093848554187,-0.015,-5.68330759339765E-19));
#345=CARTESIAN_POINT('',(1.2350989602E-18,-0.015,-0.01));
#346=CARTESIAN_POINT('',(5.80658262740534E-19,-0.015,-0.00465608616365865));
#347=CARTESIAN_POINT('',(0.0026,-0.015,-0.00465608616365865));
#348=CARTESIAN_POINT('',(0.00203929595785611,-0.0170356401429168,-0.00983068320691213));
#349=CARTESIAN_POINT('',(-3.45724741992993E-7,-0.017882130442947,-0.0100846045396845));
#350=CARTESIAN_POINT('',(-0.00203791305888813,-0.0170358380852952,-0.00983089863434978));
#351=CARTESIAN_POINT('',(-0.00288119429626984,-0.0150030560415594,-0.00956864950462416));
#352=CARTESIAN_POINT('',(-0.00203730657153603,-0.012961905510484,-0.00983102118656365));
#353=CARTESIAN_POINT('',(-1.30128090187265E-6,-0.012119312273243,-0.0100843893881259));
#354=CARTESIAN_POINT('',(0.00203587828517101,-0.0129608468068688,-0.00983142089424838));
#355=CARTESIAN_POINT('',(0.00288120598299166,-0.0149989917944297,-0.00956860334304824));
#356=CARTESIAN_POINT('',(0.00203929595785611,-0.0170356401429168,-0.00983068320691213));
#357=CARTESIAN_POINT('',(-3.45724741992993E-7,-0.017882130442947,-0.0100846045396845));
#358=CARTESIAN_POINT('',(-0.00203791305888813,-0.0170358380852952,-0.00983089863434978));
#359=CARTESIAN_POINT('',(2.01196029089682E-18,-0.0176,-0.01));
#360=CARTESIAN_POINT('',(5.80658262740534E-19,-0.015,-0.00465608616365865));
#361=CARTESIAN_POINT('',(3.78887172893177E-19,-0.015,-0.003093848554187));
#362=CARTESIAN_POINT('',(0.01,-0.015,6.22775560626326E-19));
#363=CARTESIAN_POINT('',(0.00465608616365865,-0.015,2.95555211896591E-19));
#364=CARTESIAN_POINT('',(0.00465608616365865,-0.015,0.0026));
#365=CARTESIAN_POINT('',(0.00983068320691213,-0.0170356401429168,0.00203929595785612));
#366=CARTESIAN_POINT('',(0.0100846045396845,-0.017882130442947,-3.45724741994077E-7));
#367=CARTESIAN_POINT('',(0.00983089863434978,-0.0170358380852952,-0.00203791305888813));
#368=CARTESIAN_POINT('',(0.00956864950462416,-0.0150030560415594,-0.00288119429626984));
#369=CARTESIAN_POINT('',(0.00983102118656365,-0.012961905510484,-0.00203730657153603));
#370=CARTESIAN_POINT('',(0.0100843893881259,-0.012119312273243,-1.30128090187283E-6));
#371=CARTESIAN_POINT('',(0.00983142089424838,-0.0129608468068688,0.002035878285171));
#372=CARTESIAN_POINT('',(0.00956860334304824,-0.0149989917944297,0.00288120598299166));
#373=CARTESIAN_POINT('',(0.00983068320691213,-0.0170356401429168,0.00203929595785612));
#374=CARTESIAN_POINT('',(0.0100846045396845,-0.017882130442947,-3.45724741994077E-7));
#375=CARTESIAN_POINT('',(0.00983089863434978,-0.0170358380852952,-0.00203791305888813));
#376=CARTESIAN_POINT('',(0.01,-0.0176,1.39963689132315E-18));
#377=CARTESIAN_POINT('',(0.00465608616365865,-0.015,2.95555211896591E-19));
#378=CARTESIAN_POINT('',(0.003093848554187,-0.015,1.89443586446589E-19));
#379=CARTESIAN_POINT('',(0.,-0.02,9.12361865364778E-19));
#380=CARTESIAN_POINT('',(0.,-0.02,9.12361865364778E-19));
#381=CARTESIAN_POINT('',(0.,-0.02,-0.01));
#382=CARTESIAN_POINT('',(0.,-0.01,9.12361865364778E-19));
#383=CARTESIAN_POINT('',(0.,-0.01,-0.01));
#384=CARTESIAN_POINT('',(-0.00203929595785612,-0.0170356401429168,0.00983068320691214));
#385=CARTESIAN_POINT('',(3.45724741994402E-7,-0.017882130442947,0.0100846045396845));
#386=CARTESIAN_POINT('',(0.00203791305888813,-0.0170358380852952,0.00983089863434978));
#387=CARTESIAN_POINT('',(0.00288119429626984,-0.0150030560415594,0.00956864950462416));
#388=CARTESIAN_POINT('',(0.00203730657153603,-0.012961905510484,0.00983102118656365));
#389=CARTESIAN_POINT('',(1.30128090187335E-6,-0.012119312273243,0.0100843893881259));
#390=CARTESIAN_POINT('',(-0.002035878285171,-0.0129608468068688,0.00983142089424838));
#391=CARTESIAN_POINT('',(-0.00288120598299166,-0.0149989917944297,0.00956860334304824));
#392=CARTESIAN_POINT('',(-0.00203929595785612,-0.0170356401429168,0.00983068320691214));
#393=CARTESIAN_POINT('',(3.45724741994402E-7,-0.017882130442947,0.0100846045396845));
#394=CARTESIAN_POINT('',(0.00203791305888813,-0.0170358380852952,0.00983089863434978));
#395=CARTESIAN_POINT('',(-7.87313491749471E-19,-0.0176,0.01));
#396=CARTESIAN_POINT('',(0.,-0.01,3.00038465791101E-19));
#397=CARTESIAN_POINT('',(0.,-0.01,3.00038465791101E-19));
#398=CARTESIAN_POINT('',(0.,-0.01,-0.0049));
#399=CARTESIAN_POINT('',(0.,0.,3.00038465791101E-19));
#400=CARTESIAN_POINT('',(0.,0.,-0.0049));
#401=CARTESIAN_POINT('',(-0.000978798569050496,-0.00598030941729504,-0.00482045010220338));
#402=CARTESIAN_POINT('',(-0.00138557004308945,-0.0049998281524647,-0.00469662015075668));
#403=CARTESIAN_POINT('',(-0.000978921258591696,-0.00402037797284617,-0.00482034492927274));
#404=CARTESIAN_POINT('',(-1.43296015368678E-6,-0.00361474634676853,-0.0049398406389362));
#405=CARTESIAN_POINT('',(0.000979958974493874,-0.00402063810906698,-0.00482029214024082));
#406=CARTESIAN_POINT('',(0.00138487953814175,-0.00499938197519235,-0.0046967222979227));
#407=CARTESIAN_POINT('',(0.00098052218468235,-0.00597862091512823,-0.00482009448415478));
#408=CARTESIAN_POINT('',(4.97344876693154E-7,-0.00638526718712195,-0.0049398637947951));
#409=CARTESIAN_POINT('',(-0.000978798569050496,-0.00598030941729504,-0.00482045010220338));
#410=CARTESIAN_POINT('',(-0.00138557004308945,-0.0049998281524647,-0.00469662015075668));
#411=CARTESIAN_POINT('',(-0.000978921258591696,-0.00402037797284617,-0.00482034492927274));
#412=CARTESIAN_POINT('',(-0.00125,-0.005,-0.00473787927241714));
#413=CARTESIAN_POINT('',(-0.000980447456002117,-0.0059786650767195,0.00482012656797088));
#414=CARTESIAN_POINT('',(1.72714228222705E-7,-0.00638563856677983,0.00493991026927638));
#415=CARTESIAN_POINT('',(0.000979756599089225,-0.00597878065616118,0.00482023235492358));
#416=CARTESIAN_POINT('',(0.00138518695791752,-0.00500145423576011,0.00469668939697084));
#417=CARTESIAN_POINT('',(0.000979494056631138,-0.00402016571278675,0.00482028609076934));
#418=CARTESIAN_POINT('',(6.10299577390527E-7,-0.00361505472143774,0.00493980768648426));
#419=CARTESIAN_POINT('',(-0.000978753163981653,-0.00401961607650919,0.0048204829910878));
#420=CARTESIAN_POINT('',(-0.00138519960640208,-0.00499948379555115,0.00469666658181167));
#421=CARTESIAN_POINT('',(-0.000980447456002117,-0.0059786650767195,0.00482012656797088));
#422=CARTESIAN_POINT('',(1.72714228222705E-7,-0.00638563856677983,0.00493991026927638));
#423=CARTESIAN_POINT('',(0.000979756599089225,-0.00597878065616118,0.00482023235492358));
#424=CARTESIAN_POINT('',(1.679997527723E-19,-0.00625,0.0049));
#425=CARTESIAN_POINT('',(0.,0.,0.));
#426=CARTESIAN_POINT('',(0.,-0.02,0.));
#427=CARTESIAN_POINT('',(0.,-0.02,2.29621274840129E-19));
#428=CARTESIAN_POINT('',(0.,-0.02,-0.00375));
#429=CARTESIAN_POINT('',(0.,-0.01,0.));
#430=CARTESIAN_POINT('',(0.,-0.021,2.29621274840129E-19));
#431=CARTESIAN_POINT('',(0.,-0.021,2.29621274840129E-19));
#432=CARTESIAN_POINT('',(0.,-0.021,-0.00375));
#433=CARTESIAN_POINT('',(0.,-0.021,3.46944695195361E-18));
#434=CARTESIAN_POINT('',(0.,-0.021,4.13318294712232E-19));
#435=CARTESIAN_POINT('',(0.,-0.021,-0.003));
#436=CARTESIAN_POINT('',(0.,-0.025,4.13318294712232E-19));
#437=CARTESIAN_POINT('',(0.,-0.025,4.13318294712232E-19));
#438=CARTESIAN_POINT('',(0.,-0.025,-0.003));
#439=CARTESIAN_POINT('',(0.,-0.025,0.));
#440=CARTESIAN_POINT('',(0.,-0.005,0.01));
#441=CARTESIAN_POINT('',(-1.0452161052649E-20,-0.015,0.01));
#442=CARTESIAN_POINT('',(-1.0452161052649E-20,-0.015,0.00465608616365865));
#443=CARTESIAN_POINT('',(-0.0026,-0.015,0.00465608616365865));
#444=CARTESIAN_POINT('',(-1.0452161052649E-20,-0.015,0.00465608616365865));
#445=CARTESIAN_POINT('',(0.,-0.015,0.003093848554187));
#446=MECHANICAL_DESIGN_GEOMETRIC_PRESENTATION_REPRESENTATION('',(#223),
#447);
#447=(
GEOMETRIC_REPRESENTATION_CONTEXT(3)
GLOBAL_UNCERTAINTY_ASSIGNED_CONTEXT((#448))
GLOBAL_UNIT_ASSIGNED_CONTEXT((#451,#450,#449))
REPRESENTATION_CONTEXT('Part 1','TOP_LEVEL_ASSEMBLY_PART')
);
#448=UNCERTAINTY_MEASURE_WITH_UNIT(LENGTH_MEASURE(2.E-5),#451,
'DISTANCE_ACCURACY_VALUE','Maximum Tolerance applied to model');
#449=(
NAMED_UNIT(*)
SI_UNIT($,.STERADIAN.)
SOLID_ANGLE_UNIT()
);
#450=(
NAMED_UNIT(*)
PLANE_ANGLE_UNIT()
SI_UNIT($,.RADIAN.)
);
#451=(
LENGTH_UNIT()
NAMED_UNIT(*)
SI_UNIT($,.METRE.)
);
#452=PRODUCT_DEFINITION_SHAPE('','',#453);
#453=PRODUCT_DEFINITION('','',#455,#454);
#454=PRODUCT_DEFINITION_CONTEXT('',#461,'design');
#455=PRODUCT_DEFINITION_FORMATION_WITH_SPECIFIED_SOURCE('','',#457,
 .NOT_KNOWN.);
#456=PRODUCT_RELATED_PRODUCT_CATEGORY('','',(#457));
#457=PRODUCT('Part 1','Part 1','Part 1',(#459));
#458=PRODUCT_CATEGORY('','');
#459=PRODUCT_CONTEXT('',#461,'mechanical');
#460=APPLICATION_PROTOCOL_DEFINITION('international standard',
'ap242_managed_model_based_3d_engineering',2011,#461);
#461=APPLICATION_CONTEXT('managed model based 3d engineering');
ENDSEC;
END-ISO-10303-21;
