ISO-10303-21;
HEADER;
FILE_DESCRIPTION (( 'STEP AP203' ),
    '1' );
FILE_NAME ('Bague 12mm.STEP',
    '2024-12-11T18:28:21',
    ( '' ),
    ( '' ),
    'SwSTEP 2.0',
    'SolidWorks 2024',
    '' );
FILE_SCHEMA (( 'CONFIG_CONTROL_DESIGN' ));
ENDSEC;

DATA;
#1 = DIRECTION ( 'NONE',  ( 0.000000000000000000, 0.000000000000000000, -1.000000000000000000 ) ) ;
#2 = AXIS2_PLACEMENT_3D ( 'NONE', #151, #55, #264 ) ;
#3 = PERSON_AND_ORGANIZATION_ROLE ( 'creator' ) ;
#4 = ORIENTED_EDGE ( 'NONE', *, *, #48, .F. ) ;
#5 = PERSON_AND_ORGANIZATION_ROLE ( 'design_owner' ) ;
#6 = APPROVAL_STATUS ( 'not_yet_approved' ) ;
#7 = PERSON_AND_ORGANIZATION ( #194, #47 ) ;
#8 = ORIENTED_EDGE ( 'NONE', *, *, #292, .T. ) ;
#9 = DIRECTION ( 'NONE',  ( 1.000000000000000000, 0.000000000000000000, 0.000000000000000000 ) ) ;
#10 = APPLICATION_CONTEXT ( 'configuration controlled 3d designs of mechanical parts and assemblies' ) ;
#11 = ORIENTED_EDGE ( 'NONE', *, *, #63, .T. ) ;
#12 = ORIENTED_EDGE ( 'NONE', *, *, #85, .T. ) ;
#13 = CIRCLE ( 'NONE', #181, 6.000000000000000888 ) ;
#14 = CARTESIAN_POINT ( 'NONE',  ( 6.000000000000000888, 7.347880794884120722E-16, 0.000000000000000000 ) ) ;
#15 = ADVANCED_FACE ( 'NONE', ( #31 ), #70, .F. ) ;
#16 = DIRECTION ( 'NONE',  ( 0.000000000000000000, 0.000000000000000000, 1.000000000000000000 ) ) ;
#17 = LOCAL_TIME ( 19, 28, 21.00000000000000000, #27 ) ;
#18 = DIRECTION ( 'NONE',  ( -1.000000000000000000, 0.000000000000000000, 0.000000000000000000 ) ) ;
#19 = FACE_BOUND ( 'NONE', #223, .T. ) ;
#20 = PLANE ( 'NONE',  #299 ) ;
#21 = CARTESIAN_POINT ( 'NONE',  ( 0.000000000000000000, 0.000000000000000000, 5.000000000000000000 ) ) ;
#22 = APPROVAL_DATE_TIME ( #251, #263 ) ;
#23 = CIRCLE ( 'NONE', #96, 12.50000000000000000 ) ;
#24 = PERSON_AND_ORGANIZATION ( #194, #47 ) ;
#25 = PRODUCT ( 'Bague 12mm', 'Bague 12mm', '', ( #278 ) ) ;
#26 = ORIENTED_EDGE ( 'NONE', *, *, #186, .T. ) ;
#27 = COORDINATED_UNIVERSAL_TIME_OFFSET ( 1, 0, .AHEAD. ) ;
#28 = EDGE_LOOP ( 'NONE', ( #26, #34 ) ) ;
#29 = UNCERTAINTY_MEASURE_WITH_UNIT (LENGTH_MEASURE( 1.000000000000000082E-05 ), #274, 'distance_accuracy_value', 'NONE');
#30 = DATE_TIME_ROLE ( 'classification_date' ) ;
#31 = FACE_OUTER_BOUND ( 'NONE', #104, .T. ) ;
#32 = DATE_AND_TIME ( #147, #17 ) ;
#33 = ORIENTED_EDGE ( 'NONE', *, *, #232, .T. ) ;
#34 = ORIENTED_EDGE ( 'NONE', *, *, #103, .T. ) ;
#35 = DIRECTION ( 'NONE',  ( 1.000000000000000000, 0.000000000000000000, 0.000000000000000000 ) ) ;
#36 = DIRECTION ( 'NONE',  ( 1.000000000000000000, 0.000000000000000000, 0.000000000000000000 ) ) ;
#37 = AXIS2_PLACEMENT_3D ( 'NONE', #250, #16, #150 ) ;
#38 = FACE_OUTER_BOUND ( 'NONE', #124, .T. ) ;
#39 = CARTESIAN_POINT ( 'NONE',  ( 12.50000000000000000, 1.530808498934191521E-15, 5.000000000000000000 ) ) ;
#40 = FACE_BOUND ( 'NONE', #66, .T. ) ;
#41 = CYLINDRICAL_SURFACE ( 'NONE', #281, 12.50000000000000000 ) ;
#42 = LOCAL_TIME ( 19, 28, 21.00000000000000000, #44 ) ;
#43 = CARTESIAN_POINT ( 'NONE',  ( 0.000000000000000000, 0.000000000000000000, 5.000000000000000000 ) ) ;
#44 = COORDINATED_UNIVERSAL_TIME_OFFSET ( 1, 0, .AHEAD. ) ;
#45 = VERTEX_POINT ( 'NONE', #242 ) ;
#46 = CONICAL_SURFACE ( 'NONE', #87, 9.500000000000005329, 0.7853981633974469467 ) ;
#47 = ORGANIZATION ( 'UNSPECIFIED', 'UNSPECIFIED', '' ) ;
#48 = EDGE_CURVE ( 'NONE', #89, #102, #220, .T. ) ;
#49 = APPROVAL_STATUS ( 'not_yet_approved' ) ;
#50 = COORDINATED_UNIVERSAL_TIME_OFFSET ( 1, 0, .AHEAD. ) ;
#51 = VERTEX_POINT ( 'NONE', #169 ) ;
#52 = EDGE_LOOP ( 'NONE', ( #211, #73, #12, #33 ) ) ;
#53 = FACE_OUTER_BOUND ( 'NONE', #144, .T. ) ;
#54 = ORIENTED_EDGE ( 'NONE', *, *, #172, .T. ) ;
#55 = DIRECTION ( 'NONE',  ( 0.000000000000000000, 0.000000000000000000, 1.000000000000000000 ) ) ;
#56 = DIRECTION ( 'NONE',  ( 0.7071067811865465735, 8.659560562354921765E-17, -0.7071067811865485719 ) ) ;
#57 = LINE ( 'NONE', #39, #218 ) ;
#58 = AXIS2_PLACEMENT_3D ( 'NONE', #127, #270, #130 ) ;
#59 = DIRECTION ( 'NONE',  ( 1.000000000000000000, 0.000000000000000000, 0.000000000000000000 ) ) ;
#60 = EDGE_LOOP ( 'NONE', ( #139, #161, #238, #137 ) ) ;
#61 = CC_DESIGN_PERSON_AND_ORGANIZATION_ASSIGNMENT ( #136, #5, ( #25 ) ) ;
#62 = CARTESIAN_POINT ( 'NONE',  ( 0.000000000000000000, 0.000000000000000000, 0.000000000000000000 ) ) ;
#63 = EDGE_CURVE ( 'NONE', #277, #191, #285, .T. ) ;
#64 = CARTESIAN_POINT ( 'NONE',  ( 0.000000000000000000, 0.000000000000000000, 0.000000000000000000 ) ) ;
#65 = ORIENTED_EDGE ( 'NONE', *, *, #63, .F. ) ;
#66 = EDGE_LOOP ( 'NONE', ( #240, #54 ) ) ;
#67 = APPROVAL_STATUS ( 'not_yet_approved' ) ;
#68 = ADVANCED_FACE ( 'NONE', ( #53 ), #46, .T. ) ;
#69 = CARTESIAN_POINT ( 'NONE',  ( -9.500000000000005329, 0.000000000000000000, 5.000000000000000000 ) ) ;
#70 = CYLINDRICAL_SURFACE ( 'NONE', #271, 6.000000000000000888 ) ;
#71 = AXIS2_PLACEMENT_3D ( 'NONE', #193, #266, #175 ) ;
#72 = DESIGN_CONTEXT ( 'detailed design', #10, 'design' ) ;
#73 = ORIENTED_EDGE ( 'NONE', *, *, #288, .T. ) ;
#74 = ORIENTED_EDGE ( 'NONE', *, *, #241, .T. ) ;
#75 = PERSON_AND_ORGANIZATION_ROLE ( 'design_supplier' ) ;
#76 = LINE ( 'NONE', #149, #176 ) ;
#77 = DIRECTION ( 'NONE',  ( -0.000000000000000000, -0.000000000000000000, -1.000000000000000000 ) ) ;
#78 = LINE ( 'NONE', #155, #190 ) ;
#79 = CC_DESIGN_APPROVAL ( #263, ( #158 ) ) ;
#80 = CARTESIAN_POINT ( 'NONE',  ( 0.000000000000000000, 0.000000000000000000, 0.000000000000000000 ) ) ;
#81 = CARTESIAN_POINT ( 'NONE',  ( 12.50000000000000000, 1.530808498934191521E-15, 1.999999999999995781 ) ) ;
#82 = LINE ( 'NONE', #69, #126 ) ;
#83 = LOCAL_TIME ( 19, 28, 21.00000000000000000, #141 ) ;
#84 = DIRECTION ( 'NONE',  ( -0.7071067811865465735, 0.000000000000000000, -0.7071067811865485719 ) ) ;
#85 = EDGE_CURVE ( 'NONE', #89, #191, #76, .T. ) ;
#86 = CIRCLE ( 'NONE', #229, 9.500000000000005329 ) ;
#87 = AXIS2_PLACEMENT_3D ( 'NONE', #148, #262, #122 ) ;
#88 = DIRECTION ( 'NONE',  ( 0.000000000000000000, 0.000000000000000000, 1.000000000000000000 ) ) ;
#89 = VERTEX_POINT ( 'NONE', #171 ) ;
#90 = MANIFOLD_SOLID_BREP ( 'Chanfrein1', #99 ) ;
#91 = APPLICATION_PROTOCOL_DEFINITION ( 'international standard', 'config_control_design', 1994, #10 ) ;
#92 = APPROVAL_PERSON_ORGANIZATION ( #7, #207, #93 ) ;
#93 = APPROVAL_ROLE ( '' ) ;
#94 = CC_DESIGN_PERSON_AND_ORGANIZATION_ASSIGNMENT ( #135, #280, ( #158 ) ) ;
#95 = ORIENTED_EDGE ( 'NONE', *, *, #214, .T. ) ;
#96 = AXIS2_PLACEMENT_3D ( 'NONE', #80, #245, #36 ) ;
#97 = PERSON_AND_ORGANIZATION ( #194, #47 ) ;
#98 = DIRECTION ( 'NONE',  ( 0.000000000000000000, 0.000000000000000000, 1.000000000000000000 ) ) ;
#99 = CLOSED_SHELL ( 'NONE', ( #68, #15, #296, #152, #121, #206, #258, #143 ) ) ;
#100 = AXIS2_PLACEMENT_3D ( 'NONE', #159, #1, #253 ) ;
#101 = SECURITY_CLASSIFICATION_LEVEL ( 'unclassified' ) ;
#102 = VERTEX_POINT ( 'NONE', #81 ) ;
#103 = EDGE_CURVE ( 'NONE', #275, #45, #128, .T. ) ;
#104 = EDGE_LOOP ( 'NONE', ( #8, #228, #259, #114 ) ) ;
#105 = FACE_OUTER_BOUND ( 'NONE', #28, .T. ) ;
#106 = CARTESIAN_POINT ( 'NONE',  ( 0.000000000000000000, 0.000000000000000000, 5.000000000000000000 ) ) ;
#107 = SECURITY_CLASSIFICATION ( '', '', #101 ) ;
#108 = CARTESIAN_POINT ( 'NONE',  ( -12.50000000000000000, 0.000000000000000000, 0.000000000000000000 ) ) ;
#109 = CARTESIAN_POINT ( 'NONE',  ( 0.000000000000000000, 0.000000000000000000, 0.000000000000000000 ) ) ;
#110 =( NAMED_UNIT ( * ) SI_UNIT ( $, .STERADIAN. ) SOLID_ANGLE_UNIT ( ) );
#111 = DIRECTION ( 'NONE',  ( -0.000000000000000000, -0.000000000000000000, -1.000000000000000000 ) ) ;
#112 = COORDINATED_UNIVERSAL_TIME_OFFSET ( 1, 0, .AHEAD. ) ;
#113 = AXIS2_PLACEMENT_3D ( 'NONE', #62, #291, #35 ) ;
#114 = ORIENTED_EDGE ( 'NONE', *, *, #117, .F. ) ;
#115 = AXIS2_PLACEMENT_3D ( 'NONE', #289, #98, #260 ) ;
#116 = EDGE_CURVE ( 'NONE', #192, #188, #166, .T. ) ;
#117 = EDGE_CURVE ( 'NONE', #188, #51, #131, .T. ) ;
#118 = LOCAL_TIME ( 19, 28, 21.00000000000000000, #50 ) ;
#119 = DIRECTION ( 'NONE',  ( -1.000000000000000000, 0.000000000000000000, 0.000000000000000000 ) ) ;
#120 = CARTESIAN_POINT ( 'NONE',  ( 0.000000000000000000, 0.000000000000000000, 5.000000000000000000 ) ) ;
#121 = ADVANCED_FACE ( 'NONE', ( #38, #40 ), #20, .F. ) ;
#122 = DIRECTION ( 'NONE',  ( -1.000000000000000000, 0.000000000000000000, 0.000000000000000000 ) ) ;
#123 = CIRCLE ( 'NONE', #243, 6.000000000000000888 ) ;
#124 = EDGE_LOOP ( 'NONE', ( #257, #65 ) ) ;
#125 = DIRECTION ( 'NONE',  ( 0.000000000000000000, 0.000000000000000000, 1.000000000000000000 ) ) ;
#126 = VECTOR ( 'NONE', #84, 1000.000000000000000 ) ;
#127 = CARTESIAN_POINT ( 'NONE',  ( 0.000000000000000000, 0.000000000000000000, 5.000000000000000000 ) ) ;
#128 = CIRCLE ( 'NONE', #2, 9.500000000000005329 ) ;
#129 = CC_DESIGN_DATE_AND_TIME_ASSIGNMENT ( #168, #30, ( #107 ) ) ;
#130 = DIRECTION ( 'NONE',  ( 1.000000000000000000, 0.000000000000000000, -0.000000000000000000 ) ) ;
#131 = LINE ( 'NONE', #198, #204 ) ;
#132 = ORIENTED_EDGE ( 'NONE', *, *, #103, .F. ) ;
#133 = EDGE_CURVE ( 'NONE', #192, #146, #156, .T. ) ;
#134 = DIRECTION ( 'NONE',  ( -0.000000000000000000, -0.000000000000000000, -1.000000000000000000 ) ) ;
#135 = PERSON_AND_ORGANIZATION ( #194, #47 ) ;
#136 = PERSON_AND_ORGANIZATION ( #194, #47 ) ;
#137 = ORIENTED_EDGE ( 'NONE', *, *, #288, .F. ) ;
#138 = DATE_AND_TIME ( #184, #42 ) ;
#139 = ORIENTED_EDGE ( 'NONE', *, *, #241, .F. ) ;
#140 = CIRCLE ( 'NONE', #100, 12.50000000000000000 ) ;
#141 = COORDINATED_UNIVERSAL_TIME_OFFSET ( 1, 0, .AHEAD. ) ;
#142 = CALENDAR_DATE ( 2024, 11, 12 ) ;
#143 = ADVANCED_FACE ( 'NONE', ( #272 ), #202, .T. ) ;
#144 = EDGE_LOOP ( 'NONE', ( #132, #74, #4, #236 ) ) ;
#145 = APPROVAL_DATE_TIME ( #32, #207 ) ;
#146 = VERTEX_POINT ( 'NONE', #14 ) ;
#147 = CALENDAR_DATE ( 2024, 11, 12 ) ;
#148 = CARTESIAN_POINT ( 'NONE',  ( 0.000000000000000000, 0.000000000000000000, 5.000000000000000000 ) ) ;
#149 = CARTESIAN_POINT ( 'NONE',  ( -12.50000000000000000, 0.000000000000000000, 5.000000000000000000 ) ) ;
#150 = DIRECTION ( 'NONE',  ( 1.000000000000000000, 0.000000000000000000, 0.000000000000000000 ) ) ;
#151 = CARTESIAN_POINT ( 'NONE',  ( 0.000000000000000000, 0.000000000000000000, 5.000000000000000000 ) ) ;
#152 = ADVANCED_FACE ( 'NONE', ( #105, #19 ), #222, .T. ) ;
#153 = CIRCLE ( 'NONE', #113, 6.000000000000000888 ) ;
#154 = CARTESIAN_POINT ( 'NONE',  ( 6.000000000000000888, 7.347880794884120722E-16, 5.000000000000000000 ) ) ;
#155 = CARTESIAN_POINT ( 'NONE',  ( 9.500000000000005329, 1.163414459189986274E-15, 5.000000000000000000 ) ) ;
#156 = LINE ( 'NONE', #244, #216 ) ;
#157 = PERSON_AND_ORGANIZATION ( #194, #47 ) ;
#158 = PRODUCT_DEFINITION ( 'UNKNOWN', '', #187, #72 ) ;
#159 = CARTESIAN_POINT ( 'NONE',  ( 0.000000000000000000, 0.000000000000000000, 1.999999999999995781 ) ) ;
#160 = APPROVAL_PERSON_ORGANIZATION ( #201, #248, #183 ) ;
#161 = ORIENTED_EDGE ( 'NONE', *, *, #186, .F. ) ;
#162 = PRODUCT_RELATED_PRODUCT_CATEGORY ( 'detail', '', ( #25 ) ) ;
#163 = PERSON_AND_ORGANIZATION ( #194, #47 ) ;
#164 = CARTESIAN_POINT ( 'NONE',  ( 9.500000000000005329, 1.347111479062088996E-15, 5.000000000000000000 ) ) ;
#165 = CARTESIAN_POINT ( 'NONE',  ( 0.000000000000000000, 0.000000000000000000, 1.999999999999995781 ) ) ;
#166 = CIRCLE ( 'NONE', #37, 6.000000000000000888 ) ;
#167 = ORIENTED_EDGE ( 'NONE', *, *, #116, .T. ) ;
#168 = DATE_AND_TIME ( #142, #118 ) ;
#169 = CARTESIAN_POINT ( 'NONE',  ( -6.000000000000000888, 0.000000000000000000, 0.000000000000000000 ) ) ;
#170 = DIRECTION ( 'NONE',  ( 0.000000000000000000, 0.000000000000000000, -1.000000000000000000 ) ) ;
#171 = CARTESIAN_POINT ( 'NONE',  ( -12.50000000000000000, 0.000000000000000000, 1.999999999999995781 ) ) ;
#172 = EDGE_CURVE ( 'NONE', #146, #51, #153, .T. ) ;
#173 = DIRECTION ( 'NONE',  ( 0.000000000000000000, 0.000000000000000000, 1.000000000000000000 ) ) ;
#174 = DIRECTION ( 'NONE',  ( 1.000000000000000000, 0.000000000000000000, -0.000000000000000000 ) ) ;
#175 = DIRECTION ( 'NONE',  ( -1.000000000000000000, 0.000000000000000000, 0.000000000000000000 ) ) ;
#176 = VECTOR ( 'NONE', #267, 1000.000000000000000 ) ;
#177 = ADVANCED_BREP_SHAPE_REPRESENTATION ( 'Bague 12mm', ( #90, #178 ), #287 ) ;
#178 = AXIS2_PLACEMENT_3D ( 'NONE', #64, #88, #185 ) ;
#179 = CARTESIAN_POINT ( 'NONE',  ( 0.000000000000000000, 0.000000000000000000, 5.000000000000000000 ) ) ;
#180 = DIRECTION ( 'NONE',  ( -1.000000000000000000, 0.000000000000000000, 0.000000000000000000 ) ) ;
#181 = AXIS2_PLACEMENT_3D ( 'NONE', #109, #199, #295 ) ;
#182 = DIRECTION ( 'NONE',  ( 1.000000000000000000, 0.000000000000000000, 0.000000000000000000 ) ) ;
#183 = APPROVAL_ROLE ( '' ) ;
#184 = CALENDAR_DATE ( 2024, 11, 12 ) ;
#185 = DIRECTION ( 'NONE',  ( 1.000000000000000000, 0.000000000000000000, 0.000000000000000000 ) ) ;
#186 = EDGE_CURVE ( 'NONE', #45, #275, #86, .T. ) ;
#187 = PRODUCT_DEFINITION_FORMATION_WITH_SPECIFIED_SOURCE ( 'ANY', '', #25, .NOT_KNOWN. ) ;
#188 = VERTEX_POINT ( 'NONE', #224 ) ;
#189 = EDGE_LOOP ( 'NONE', ( #255, #167, #208, #213 ) ) ;
#190 = VECTOR ( 'NONE', #56, 1000.000000000000000 ) ;
#191 = VERTEX_POINT ( 'NONE', #108 ) ;
#192 = VERTEX_POINT ( 'NONE', #154 ) ;
#193 = CARTESIAN_POINT ( 'NONE',  ( 0.000000000000000000, 0.000000000000000000, 5.000000000000000000 ) ) ;
#194 = PERSON ( 'UNSPECIFIED', 'UNSPECIFIED', 'UNSPECIFIED', ('UNSPECIFIED'), ('UNSPECIFIED'), ('UNSPECIFIED') ) ;
#195 = CARTESIAN_POINT ( 'NONE',  ( 0.000000000000000000, 0.000000000000000000, 0.000000000000000000 ) ) ;
#196 = CC_DESIGN_SECURITY_CLASSIFICATION ( #107, ( #187 ) ) ;
#197 = DIRECTION ( 'NONE',  ( -0.000000000000000000, -0.000000000000000000, -1.000000000000000000 ) ) ;
#198 = CARTESIAN_POINT ( 'NONE',  ( -6.000000000000000888, 0.000000000000000000, 5.000000000000000000 ) ) ;
#199 = DIRECTION ( 'NONE',  ( 0.000000000000000000, 0.000000000000000000, 1.000000000000000000 ) ) ;
#200 = CC_DESIGN_PERSON_AND_ORGANIZATION_ASSIGNMENT ( #24, #3, ( #187 ) ) ;
#201 = PERSON_AND_ORGANIZATION ( #194, #47 ) ;
#202 = CONICAL_SURFACE ( 'NONE', #71, 9.500000000000005329, 0.7853981633974469467 ) ;
#203 = APPROVAL_DATE_TIME ( #230, #248 ) ;
#204 = VECTOR ( 'NONE', #294, 1000.000000000000000 ) ;
#205 = ORIENTED_EDGE ( 'NONE', *, *, #85, .F. ) ;
#206 = ADVANCED_FACE ( 'NONE', ( #290 ), #221, .T. ) ;
#207 = APPROVAL ( #6, 'UNSPECIFIED' ) ;
#208 = ORIENTED_EDGE ( 'NONE', *, *, #117, .T. ) ;
#209 = CC_DESIGN_PERSON_AND_ORGANIZATION_ASSIGNMENT ( #97, #239, ( #107 ) ) ;
#210 = DIRECTION ( 'NONE',  ( -0.000000000000000000, -0.000000000000000000, -1.000000000000000000 ) ) ;
#211 = ORIENTED_EDGE ( 'NONE', *, *, #214, .F. ) ;
#212 = APPROVAL_PERSON_ORGANIZATION ( #157, #263, #297 ) ;
#213 = ORIENTED_EDGE ( 'NONE', *, *, #172, .F. ) ;
#214 = EDGE_CURVE ( 'NONE', #102, #277, #57, .T. ) ;
#215 = APPLICATION_CONTEXT ( 'configuration controlled 3d designs of mechanical parts and assemblies' ) ;
#216 = VECTOR ( 'NONE', #134, 1000.000000000000000 ) ;
#217 = DIRECTION ( 'NONE',  ( -1.000000000000000000, 0.000000000000000000, 0.000000000000000000 ) ) ;
#218 = VECTOR ( 'NONE', #197, 1000.000000000000000 ) ;
#219 = CYLINDRICAL_SURFACE ( 'NONE', #268, 6.000000000000000888 ) ;
#220 = CIRCLE ( 'NONE', #247, 12.50000000000000000 ) ;
#221 = CYLINDRICAL_SURFACE ( 'NONE', #283, 12.50000000000000000 ) ;
#222 = PLANE ( 'NONE',  #58 ) ;
#223 = EDGE_LOOP ( 'NONE', ( #282, #231 ) ) ;
#224 = CARTESIAN_POINT ( 'NONE',  ( -6.000000000000000888, 0.000000000000000000, 5.000000000000000000 ) ) ;
#225 = CC_DESIGN_APPROVAL ( #248, ( #187 ) ) ;
#226 = DATE_TIME_ROLE ( 'creation_date' ) ;
#227 = CALENDAR_DATE ( 2024, 11, 12 ) ;
#228 = ORIENTED_EDGE ( 'NONE', *, *, #133, .T. ) ;
#229 = AXIS2_PLACEMENT_3D ( 'NONE', #106, #125, #59 ) ;
#230 = DATE_AND_TIME ( #298, #252 ) ;
#231 = ORIENTED_EDGE ( 'NONE', *, *, #116, .F. ) ;
#232 = EDGE_CURVE ( 'NONE', #191, #277, #23, .T. ) ;
#233 = FACE_OUTER_BOUND ( 'NONE', #284, .T. ) ;
#234 = DIRECTION ( 'NONE',  ( 0.000000000000000000, 0.000000000000000000, 1.000000000000000000 ) ) ;
#235 = SHAPE_DEFINITION_REPRESENTATION ( #279, #177 ) ;
#236 = ORIENTED_EDGE ( 'NONE', *, *, #273, .F. ) ;
#237 = CC_DESIGN_PERSON_AND_ORGANIZATION_ASSIGNMENT ( #163, #75, ( #187 ) ) ;
#238 = ORIENTED_EDGE ( 'NONE', *, *, #273, .T. ) ;
#239 = PERSON_AND_ORGANIZATION_ROLE ( 'classification_officer' ) ;
#240 = ORIENTED_EDGE ( 'NONE', *, *, #261, .T. ) ;
#241 = EDGE_CURVE ( 'NONE', #275, #102, #78, .T. ) ;
#242 = CARTESIAN_POINT ( 'NONE',  ( -9.500000000000005329, 0.000000000000000000, 5.000000000000000000 ) ) ;
#243 = AXIS2_PLACEMENT_3D ( 'NONE', #21, #234, #182 ) ;
#244 = CARTESIAN_POINT ( 'NONE',  ( 6.000000000000000888, 7.347880794884120722E-16, 5.000000000000000000 ) ) ;
#245 = DIRECTION ( 'NONE',  ( 0.000000000000000000, 0.000000000000000000, 1.000000000000000000 ) ) ;
#246 = FACE_OUTER_BOUND ( 'NONE', #189, .T. ) ;
#247 = AXIS2_PLACEMENT_3D ( 'NONE', #165, #170, #9 ) ;
#248 = APPROVAL ( #67, 'UNSPECIFIED' ) ;
#249 = CARTESIAN_POINT ( 'NONE',  ( 0.000000000000000000, 0.000000000000000000, 5.000000000000000000 ) ) ;
#250 = CARTESIAN_POINT ( 'NONE',  ( 0.000000000000000000, 0.000000000000000000, 5.000000000000000000 ) ) ;
#251 = DATE_AND_TIME ( #227, #83 ) ;
#252 = LOCAL_TIME ( 19, 28, 21.00000000000000000, #112 ) ;
#253 = DIRECTION ( 'NONE',  ( 1.000000000000000000, 0.000000000000000000, 0.000000000000000000 ) ) ;
#254 = APPLICATION_PROTOCOL_DEFINITION ( 'international standard', 'config_control_design', 1994, #215 ) ;
#255 = ORIENTED_EDGE ( 'NONE', *, *, #133, .F. ) ;
#256 = CARTESIAN_POINT ( 'NONE',  ( 12.50000000000000000, 1.530808498934191521E-15, 0.000000000000000000 ) ) ;
#257 = ORIENTED_EDGE ( 'NONE', *, *, #232, .F. ) ;
#258 = ADVANCED_FACE ( 'NONE', ( #246 ), #219, .F. ) ;
#259 = ORIENTED_EDGE ( 'NONE', *, *, #261, .F. ) ;
#260 = DIRECTION ( 'NONE',  ( 1.000000000000000000, 0.000000000000000000, 0.000000000000000000 ) ) ;
#261 = EDGE_CURVE ( 'NONE', #51, #146, #13, .T. ) ;
#262 = DIRECTION ( 'NONE',  ( 0.000000000000000000, 0.000000000000000000, -1.000000000000000000 ) ) ;
#263 = APPROVAL ( #49, 'UNSPECIFIED' ) ;
#264 = DIRECTION ( 'NONE',  ( 1.000000000000000000, 0.000000000000000000, 0.000000000000000000 ) ) ;
#265 = CC_DESIGN_APPROVAL ( #207, ( #107 ) ) ;
#266 = DIRECTION ( 'NONE',  ( 0.000000000000000000, 0.000000000000000000, -1.000000000000000000 ) ) ;
#267 = DIRECTION ( 'NONE',  ( -0.000000000000000000, -0.000000000000000000, -1.000000000000000000 ) ) ;
#268 = AXIS2_PLACEMENT_3D ( 'NONE', #249, #293, #18 ) ;
#269 = CC_DESIGN_DATE_AND_TIME_ASSIGNMENT ( #138, #226, ( #158 ) ) ;
#270 = DIRECTION ( 'NONE',  ( 0.000000000000000000, 0.000000000000000000, 1.000000000000000000 ) ) ;
#271 = AXIS2_PLACEMENT_3D ( 'NONE', #120, #210, #119 ) ;
#272 = FACE_OUTER_BOUND ( 'NONE', #60, .T. ) ;
#273 = EDGE_CURVE ( 'NONE', #45, #89, #82, .T. ) ;
#274 =( LENGTH_UNIT ( ) NAMED_UNIT ( * ) SI_UNIT ( .MILLI., .METRE. ) );
#275 = VERTEX_POINT ( 'NONE', #164 ) ;
#276 =( NAMED_UNIT ( * ) PLANE_ANGLE_UNIT ( ) SI_UNIT ( $, .RADIAN. ) );
#277 = VERTEX_POINT ( 'NONE', #256 ) ;
#278 = MECHANICAL_CONTEXT ( 'NONE', #215, 'mechanical' ) ;
#279 = PRODUCT_DEFINITION_SHAPE ( 'NONE', 'NONE',  #158 ) ;
#280 = PERSON_AND_ORGANIZATION_ROLE ( 'creator' ) ;
#281 = AXIS2_PLACEMENT_3D ( 'NONE', #43, #111, #180 ) ;
#282 = ORIENTED_EDGE ( 'NONE', *, *, #292, .F. ) ;
#283 = AXIS2_PLACEMENT_3D ( 'NONE', #179, #77, #217 ) ;
#284 = EDGE_LOOP ( 'NONE', ( #286, #95, #11, #205 ) ) ;
#285 = CIRCLE ( 'NONE', #115, 12.50000000000000000 ) ;
#286 = ORIENTED_EDGE ( 'NONE', *, *, #48, .T. ) ;
#287 =( GEOMETRIC_REPRESENTATION_CONTEXT ( 3 ) GLOBAL_UNCERTAINTY_ASSIGNED_CONTEXT ( ( #29 ) ) GLOBAL_UNIT_ASSIGNED_CONTEXT ( ( #274, #276, #110 ) ) REPRESENTATION_CONTEXT ( 'NONE', 'WORKASPACE' ) );
#288 = EDGE_CURVE ( 'NONE', #102, #89, #140, .T. ) ;
#289 = CARTESIAN_POINT ( 'NONE',  ( 0.000000000000000000, 0.000000000000000000, 0.000000000000000000 ) ) ;
#290 = FACE_OUTER_BOUND ( 'NONE', #52, .T. ) ;
#291 = DIRECTION ( 'NONE',  ( 0.000000000000000000, 0.000000000000000000, 1.000000000000000000 ) ) ;
#292 = EDGE_CURVE ( 'NONE', #188, #192, #123, .T. ) ;
#293 = DIRECTION ( 'NONE',  ( -0.000000000000000000, -0.000000000000000000, -1.000000000000000000 ) ) ;
#294 = DIRECTION ( 'NONE',  ( -0.000000000000000000, -0.000000000000000000, -1.000000000000000000 ) ) ;
#295 = DIRECTION ( 'NONE',  ( 1.000000000000000000, 0.000000000000000000, 0.000000000000000000 ) ) ;
#296 = ADVANCED_FACE ( 'NONE', ( #233 ), #41, .T. ) ;
#297 = APPROVAL_ROLE ( '' ) ;
#298 = CALENDAR_DATE ( 2024, 11, 12 ) ;
#299 = AXIS2_PLACEMENT_3D ( 'NONE', #195, #173, #174 ) ;
ENDSEC;
END-ISO-10303-21;
