ISO-10303-21;
HEADER;
FILE_DESCRIPTION (( 'STEP AP203' ),
    '1' );
FILE_NAME ('Bague 10mm.STEP',
    '2024-12-11T18:27:57',
    ( '' ),
    ( '' ),
    'SwSTEP 2.0',
    'SolidWorks 2024',
    '' );
FILE_SCHEMA (( 'CONFIG_CONTROL_DESIGN' ));
ENDSEC;

DATA;
#1 = CC_DESIGN_PERSON_AND_ORGANIZATION_ASSIGNMENT ( #6, #70, ( #198 ) ) ;
#2 = APPROVAL_ROLE ( '' ) ;
#3 = CONICAL_SURFACE ( 'NONE', #173, 9.500000000000005329, 0.7853981633974469467 ) ;
#4 = CALENDAR_DATE ( 2024, 11, 12 ) ;
#5 = DIRECTION ( 'NONE',  ( 0.000000000000000000, 0.000000000000000000, -1.000000000000000000 ) ) ;
#6 = PERSON_AND_ORGANIZATION ( #299, #62 ) ;
#7 = DIRECTION ( 'NONE',  ( 0.000000000000000000, 0.000000000000000000, 1.000000000000000000 ) ) ;
#8 = APPROVAL_PERSON_ORGANIZATION ( #252, #127, #2 ) ;
#9 = APPROVAL_DATE_TIME ( #279, #77 ) ;
#10 = LOCAL_TIME ( 19, 27, 57.00000000000000000, #115 ) ;
#11 = PLANE ( 'NONE',  #42 ) ;
#12 = ORIENTED_EDGE ( 'NONE', *, *, #246, .T. ) ;
#13 = APPLICATION_PROTOCOL_DEFINITION ( 'international standard', 'config_control_design', 1994, #255 ) ;
#14 = ORIENTED_EDGE ( 'NONE', *, *, #35, .F. ) ;
#15 = EDGE_LOOP ( 'NONE', ( #269, #285, #31, #106 ) ) ;
#16 = DIRECTION ( 'NONE',  ( -0.000000000000000000, -0.000000000000000000, -1.000000000000000000 ) ) ;
#17 = AXIS2_PLACEMENT_3D ( 'NONE', #20, #86, #64 ) ;
#18 = ORIENTED_EDGE ( 'NONE', *, *, #87, .F. ) ;
#19 = ORIENTED_EDGE ( 'NONE', *, *, #180, .T. ) ;
#20 = CARTESIAN_POINT ( 'NONE',  ( 0.000000000000000000, 0.000000000000000000, 5.000000000000000000 ) ) ;
#21 = FACE_OUTER_BOUND ( 'NONE', #199, .T. ) ;
#22 = LINE ( 'NONE', #24, #79 ) ;
#23 = CIRCLE ( 'NONE', #68, 5.000000000000000000 ) ;
#24 = CARTESIAN_POINT ( 'NONE',  ( 9.500000000000005329, 1.163414459189986274E-15, 5.000000000000000000 ) ) ;
#25 = ADVANCED_FACE ( 'NONE', ( #202, #44 ), #156, .F. ) ;
#26 = APPROVAL_ROLE ( '' ) ;
#27 = APPROVAL_PERSON_ORGANIZATION ( #210, #77, #26 ) ;
#28 = CONICAL_SURFACE ( 'NONE', #17, 9.500000000000005329, 0.7853981633974469467 ) ;
#29 = DATE_AND_TIME ( #4, #10 ) ;
#30 = CARTESIAN_POINT ( 'NONE',  ( 0.000000000000000000, 0.000000000000000000, 0.000000000000000000 ) ) ;
#31 = ORIENTED_EDGE ( 'NONE', *, *, #262, .T. ) ;
#32 =( GEOMETRIC_REPRESENTATION_CONTEXT ( 3 ) GLOBAL_UNCERTAINTY_ASSIGNED_CONTEXT ( ( #222 ) ) GLOBAL_UNIT_ASSIGNED_CONTEXT ( ( #260, #261, #216 ) ) REPRESENTATION_CONTEXT ( 'NONE', 'WORKASPACE' ) );
#33 = EDGE_LOOP ( 'NONE', ( #203, #263, #236, #296 ) ) ;
#34 = DIRECTION ( 'NONE',  ( 1.000000000000000000, 0.000000000000000000, 0.000000000000000000 ) ) ;
#35 = EDGE_CURVE ( 'NONE', #239, #174, #292, .T. ) ;
#36 = DIRECTION ( 'NONE',  ( 0.000000000000000000, 0.000000000000000000, -1.000000000000000000 ) ) ;
#37 = CARTESIAN_POINT ( 'NONE',  ( 0.000000000000000000, 0.000000000000000000, 5.000000000000000000 ) ) ;
#38 = CC_DESIGN_SECURITY_CLASSIFICATION ( #186, ( #198 ) ) ;
#39 = ORIENTED_EDGE ( 'NONE', *, *, #246, .F. ) ;
#40 = ORIENTED_EDGE ( 'NONE', *, *, #67, .F. ) ;
#41 = EDGE_LOOP ( 'NONE', ( #84, #39 ) ) ;
#42 = AXIS2_PLACEMENT_3D ( 'NONE', #192, #96, #197 ) ;
#43 = CARTESIAN_POINT ( 'NONE',  ( -12.50000000000000000, 0.000000000000000000, 5.000000000000000000 ) ) ;
#44 = FACE_BOUND ( 'NONE', #58, .T. ) ;
#45 = DIRECTION ( 'NONE',  ( 0.7071067811865465735, 8.659560562354921765E-17, -0.7071067811865485719 ) ) ;
#46 = LOCAL_TIME ( 19, 27, 57.00000000000000000, #212 ) ;
#47 = CC_DESIGN_PERSON_AND_ORGANIZATION_ASSIGNMENT ( #120, #54, ( #98 ) ) ;
#48 = COORDINATED_UNIVERSAL_TIME_OFFSET ( 1, 0, .AHEAD. ) ;
#49 = ADVANCED_FACE ( 'NONE', ( #226 ), #89, .T. ) ;
#50 = CARTESIAN_POINT ( 'NONE',  ( 0.000000000000000000, 0.000000000000000000, 5.000000000000000000 ) ) ;
#51 = SECURITY_CLASSIFICATION_LEVEL ( 'unclassified' ) ;
#52 = AXIS2_PLACEMENT_3D ( 'NONE', #50, #141, #209 ) ;
#53 = CARTESIAN_POINT ( 'NONE',  ( 0.000000000000000000, 0.000000000000000000, 5.000000000000000000 ) ) ;
#54 = PERSON_AND_ORGANIZATION_ROLE ( 'creator' ) ;
#55 = DIRECTION ( 'NONE',  ( -0.000000000000000000, -0.000000000000000000, -1.000000000000000000 ) ) ;
#56 = EDGE_CURVE ( 'NONE', #153, #101, #22, .T. ) ;
#57 = DIRECTION ( 'NONE',  ( 1.000000000000000000, 0.000000000000000000, 0.000000000000000000 ) ) ;
#58 = EDGE_LOOP ( 'NONE', ( #63, #102 ) ) ;
#59 = FACE_OUTER_BOUND ( 'NONE', #150, .T. ) ;
#60 = VERTEX_POINT ( 'NONE', #112 ) ;
#61 = ORIENTED_EDGE ( 'NONE', *, *, #262, .F. ) ;
#62 = ORGANIZATION ( 'UNSPECIFIED', 'UNSPECIFIED', '' ) ;
#63 = ORIENTED_EDGE ( 'NONE', *, *, #131, .T. ) ;
#64 = DIRECTION ( 'NONE',  ( -1.000000000000000000, 0.000000000000000000, 0.000000000000000000 ) ) ;
#65 = CIRCLE ( 'NONE', #52, 5.000000000000000000 ) ;
#66 = PERSON_AND_ORGANIZATION ( #299, #62 ) ;
#67 = EDGE_CURVE ( 'NONE', #123, #101, #90, .T. ) ;
#68 = AXIS2_PLACEMENT_3D ( 'NONE', #171, #234, #57 ) ;
#69 = FACE_OUTER_BOUND ( 'NONE', #129, .T. ) ;
#70 = PERSON_AND_ORGANIZATION_ROLE ( 'design_supplier' ) ;
#71 = CARTESIAN_POINT ( 'NONE',  ( 9.500000000000005329, 1.347111479062088996E-15, 5.000000000000000000 ) ) ;
#72 = CC_DESIGN_DATE_AND_TIME_ASSIGNMENT ( #207, #163, ( #186 ) ) ;
#73 = APPROVAL_DATE_TIME ( #280, #127 ) ;
#74 = COORDINATED_UNIVERSAL_TIME_OFFSET ( 1, 0, .AHEAD. ) ;
#75 = DIRECTION ( 'NONE',  ( 1.000000000000000000, 0.000000000000000000, 0.000000000000000000 ) ) ;
#76 = CARTESIAN_POINT ( 'NONE',  ( 0.000000000000000000, 0.000000000000000000, 5.000000000000000000 ) ) ;
#77 = APPROVAL ( #281, 'UNSPECIFIED' ) ;
#78 = ORIENTED_EDGE ( 'NONE', *, *, #225, .F. ) ;
#79 = VECTOR ( 'NONE', #45, 1000.000000000000000 ) ;
#80 = CYLINDRICAL_SURFACE ( 'NONE', #228, 12.50000000000000000 ) ;
#81 = EDGE_LOOP ( 'NONE', ( #78, #200, #273, #177 ) ) ;
#82 = VERTEX_POINT ( 'NONE', #130 ) ;
#83 = CARTESIAN_POINT ( 'NONE',  ( -12.50000000000000000, 0.000000000000000000, 1.999999999999995781 ) ) ;
#84 = ORIENTED_EDGE ( 'NONE', *, *, #158, .F. ) ;
#85 = VECTOR ( 'NONE', #175, 1000.000000000000000 ) ;
#86 = DIRECTION ( 'NONE',  ( 0.000000000000000000, 0.000000000000000000, -1.000000000000000000 ) ) ;
#87 = EDGE_CURVE ( 'NONE', #220, #123, #221, .T. ) ;
#88 = CARTESIAN_POINT ( 'NONE',  ( 0.000000000000000000, 0.000000000000000000, 0.000000000000000000 ) ) ;
#89 = CYLINDRICAL_SURFACE ( 'NONE', #274, 12.50000000000000000 ) ;
#90 = CIRCLE ( 'NONE', #104, 12.50000000000000000 ) ;
#91 = CARTESIAN_POINT ( 'NONE',  ( 0.000000000000000000, 0.000000000000000000, 1.999999999999995781 ) ) ;
#92 = CALENDAR_DATE ( 2024, 11, 12 ) ;
#93 = DIRECTION ( 'NONE',  ( 0.000000000000000000, 0.000000000000000000, 1.000000000000000000 ) ) ;
#94 = DIRECTION ( 'NONE',  ( -1.000000000000000000, 0.000000000000000000, 0.000000000000000000 ) ) ;
#95 = PERSON_AND_ORGANIZATION ( #299, #62 ) ;
#96 = DIRECTION ( 'NONE',  ( 0.000000000000000000, 0.000000000000000000, 1.000000000000000000 ) ) ;
#97 = VECTOR ( 'NONE', #264, 1000.000000000000000 ) ;
#98 = PRODUCT_DEFINITION ( 'UNKNOWN', '', #198, #178 ) ;
#99 = LINE ( 'NONE', #284, #85 ) ;
#100 = ADVANCED_FACE ( 'NONE', ( #227 ), #28, .T. ) ;
#101 = VERTEX_POINT ( 'NONE', #132 ) ;
#102 = ORIENTED_EDGE ( 'NONE', *, *, #229, .T. ) ;
#103 = VERTEX_POINT ( 'NONE', #223 ) ;
#104 = AXIS2_PLACEMENT_3D ( 'NONE', #91, #245, #244 ) ;
#105 = ORIENTED_EDGE ( 'NONE', *, *, #158, .T. ) ;
#106 = ORIENTED_EDGE ( 'NONE', *, *, #121, .F. ) ;
#107 = AXIS2_PLACEMENT_3D ( 'NONE', #282, #36, #75 ) ;
#108 = ADVANCED_FACE ( 'NONE', ( #21 ), #201, .F. ) ;
#109 = DIRECTION ( 'NONE',  ( 0.000000000000000000, 0.000000000000000000, 1.000000000000000000 ) ) ;
#110 = AXIS2_PLACEMENT_3D ( 'NONE', #88, #162, #297 ) ;
#111 = PRODUCT_DEFINITION_SHAPE ( 'NONE', 'NONE',  #98 ) ;
#112 = CARTESIAN_POINT ( 'NONE',  ( 5.000000000000000000, 6.123233995736766282E-16, 5.000000000000000000 ) ) ;
#113 = APPROVAL_ROLE ( '' ) ;
#114 = AXIS2_PLACEMENT_3D ( 'NONE', #293, #157, #34 ) ;
#115 = COORDINATED_UNIVERSAL_TIME_OFFSET ( 1, 0, .AHEAD. ) ;
#116 = CARTESIAN_POINT ( 'NONE',  ( 0.000000000000000000, 0.000000000000000000, 5.000000000000000000 ) ) ;
#117 = DATE_TIME_ROLE ( 'creation_date' ) ;
#118 = APPLICATION_CONTEXT ( 'configuration controlled 3d designs of mechanical parts and assemblies' ) ;
#119 = DIRECTION ( 'NONE',  ( 1.000000000000000000, 0.000000000000000000, 0.000000000000000000 ) ) ;
#120 = PERSON_AND_ORGANIZATION ( #299, #62 ) ;
#121 = EDGE_CURVE ( 'NONE', #123, #239, #248, .T. ) ;
#122 = CIRCLE ( 'NONE', #107, 12.50000000000000000 ) ;
#123 = VERTEX_POINT ( 'NONE', #83 ) ;
#124 = ADVANCED_BREP_SHAPE_REPRESENTATION ( 'Bague 10mm', ( #206, #154 ), #32 ) ;
#125 = DIRECTION ( 'NONE',  ( 1.000000000000000000, 0.000000000000000000, 0.000000000000000000 ) ) ;
#126 = ORIENTED_EDGE ( 'NONE', *, *, #139, .F. ) ;
#127 = APPROVAL ( #256, 'UNSPECIFIED' ) ;
#128 = CARTESIAN_POINT ( 'NONE',  ( 0.000000000000000000, 0.000000000000000000, 0.000000000000000000 ) ) ;
#129 = EDGE_LOOP ( 'NONE', ( #19, #214 ) ) ;
#130 = CARTESIAN_POINT ( 'NONE',  ( 5.000000000000000000, 6.123233995736766282E-16, 0.000000000000000000 ) ) ;
#131 = EDGE_CURVE ( 'NONE', #148, #82, #133, .T. ) ;
#132 = CARTESIAN_POINT ( 'NONE',  ( 12.50000000000000000, 1.530808498934191521E-15, 1.999999999999995781 ) ) ;
#133 = CIRCLE ( 'NONE', #114, 5.000000000000000000 ) ;
#134 = DIRECTION ( 'NONE',  ( -0.000000000000000000, -0.000000000000000000, -1.000000000000000000 ) ) ;
#135 = DIRECTION ( 'NONE',  ( 1.000000000000000000, 0.000000000000000000, -0.000000000000000000 ) ) ;
#136 = DIRECTION ( 'NONE',  ( -0.7071067811865465735, 0.000000000000000000, -0.7071067811865485719 ) ) ;
#137 = CIRCLE ( 'NONE', #251, 5.000000000000000000 ) ;
#138 = CALENDAR_DATE ( 2024, 11, 12 ) ;
#139 = EDGE_CURVE ( 'NONE', #153, #220, #143, .T. ) ;
#140 = CALENDAR_DATE ( 2024, 11, 12 ) ;
#141 = DIRECTION ( 'NONE',  ( 0.000000000000000000, 0.000000000000000000, 1.000000000000000000 ) ) ;
#142 = AXIS2_PLACEMENT_3D ( 'NONE', #183, #109, #135 ) ;
#143 = CIRCLE ( 'NONE', #160, 9.500000000000005329 ) ;
#144 = PERSON_AND_ORGANIZATION ( #299, #62 ) ;
#145 = DIRECTION ( 'NONE',  ( 0.000000000000000000, 0.000000000000000000, 1.000000000000000000 ) ) ;
#146 = MECHANICAL_CONTEXT ( 'NONE', #255, 'mechanical' ) ;
#147 = CARTESIAN_POINT ( 'NONE',  ( 12.50000000000000000, 1.530808498934191521E-15, 5.000000000000000000 ) ) ;
#148 = VERTEX_POINT ( 'NONE', #254 ) ;
#149 = CARTESIAN_POINT ( 'NONE',  ( -9.500000000000005329, 0.000000000000000000, 5.000000000000000000 ) ) ;
#150 = EDGE_LOOP ( 'NONE', ( #105, #291, #243, #172 ) ) ;
#151 = CARTESIAN_POINT ( 'NONE',  ( 0.000000000000000000, 0.000000000000000000, 5.000000000000000000 ) ) ;
#152 = LOCAL_TIME ( 19, 27, 57.00000000000000000, #259 ) ;
#153 = VERTEX_POINT ( 'NONE', #71 ) ;
#154 = AXIS2_PLACEMENT_3D ( 'NONE', #30, #93, #167 ) ;
#155 = CC_DESIGN_PERSON_AND_ORGANIZATION_ASSIGNMENT ( #144, #232, ( #272 ) ) ;
#156 = PLANE ( 'NONE',  #142 ) ;
#157 = DIRECTION ( 'NONE',  ( 0.000000000000000000, 0.000000000000000000, 1.000000000000000000 ) ) ;
#158 = EDGE_CURVE ( 'NONE', #103, #60, #65, .T. ) ;
#159 = DIRECTION ( 'NONE',  ( -1.000000000000000000, 0.000000000000000000, 0.000000000000000000 ) ) ;
#160 = AXIS2_PLACEMENT_3D ( 'NONE', #165, #257, #168 ) ;
#161 = PRODUCT_RELATED_PRODUCT_CATEGORY ( 'detail', '', ( #272 ) ) ;
#162 = DIRECTION ( 'NONE',  ( 0.000000000000000000, 0.000000000000000000, 1.000000000000000000 ) ) ;
#163 = DATE_TIME_ROLE ( 'classification_date' ) ;
#164 = CIRCLE ( 'NONE', #238, 12.50000000000000000 ) ;
#165 = CARTESIAN_POINT ( 'NONE',  ( 0.000000000000000000, 0.000000000000000000, 5.000000000000000000 ) ) ;
#166 = ADVANCED_FACE ( 'NONE', ( #258 ), #3, .T. ) ;
#167 = DIRECTION ( 'NONE',  ( 1.000000000000000000, 0.000000000000000000, 0.000000000000000000 ) ) ;
#168 = DIRECTION ( 'NONE',  ( 1.000000000000000000, 0.000000000000000000, 0.000000000000000000 ) ) ;
#169 = PERSON_AND_ORGANIZATION_ROLE ( 'classification_officer' ) ;
#170 = LINE ( 'NONE', #218, #295 ) ;
#171 = CARTESIAN_POINT ( 'NONE',  ( 0.000000000000000000, 0.000000000000000000, 0.000000000000000000 ) ) ;
#172 = ORIENTED_EDGE ( 'NONE', *, *, #204, .F. ) ;
#173 = AXIS2_PLACEMENT_3D ( 'NONE', #116, #5, #94 ) ;
#174 = VERTEX_POINT ( 'NONE', #189 ) ;
#175 = DIRECTION ( 'NONE',  ( -0.000000000000000000, -0.000000000000000000, -1.000000000000000000 ) ) ;
#176 = ORIENTED_EDGE ( 'NONE', *, *, #204, .T. ) ;
#177 = ORIENTED_EDGE ( 'NONE', *, *, #35, .T. ) ;
#178 = DESIGN_CONTEXT ( 'detailed design', #118, 'design' ) ;
#179 = CC_DESIGN_APPROVAL ( #215, ( #98 ) ) ;
#180 = EDGE_CURVE ( 'NONE', #220, #153, #290, .T. ) ;
#181 = CARTESIAN_POINT ( 'NONE',  ( 0.000000000000000000, 0.000000000000000000, 5.000000000000000000 ) ) ;
#182 = CARTESIAN_POINT ( 'NONE',  ( 0.000000000000000000, 0.000000000000000000, 5.000000000000000000 ) ) ;
#183 = CARTESIAN_POINT ( 'NONE',  ( 0.000000000000000000, 0.000000000000000000, 0.000000000000000000 ) ) ;
#184 = PERSON_AND_ORGANIZATION ( #299, #62 ) ;
#185 = ADVANCED_FACE ( 'NONE', ( #69, #276 ), #11, .T. ) ;
#186 = SECURITY_CLASSIFICATION ( '', '', #51 ) ;
#187 = SHAPE_DEFINITION_REPRESENTATION ( #111, #124 ) ;
#188 = DATE_AND_TIME ( #140, #46 ) ;
#189 = CARTESIAN_POINT ( 'NONE',  ( 12.50000000000000000, 1.530808498934191521E-15, 0.000000000000000000 ) ) ;
#190 = APPROVAL_STATUS ( 'not_yet_approved' ) ;
#191 = DIRECTION ( 'NONE',  ( 1.000000000000000000, 0.000000000000000000, 0.000000000000000000 ) ) ;
#192 = CARTESIAN_POINT ( 'NONE',  ( 0.000000000000000000, 0.000000000000000000, 5.000000000000000000 ) ) ;
#193 = ORIENTED_EDGE ( 'NONE', *, *, #229, .F. ) ;
#194 = DIRECTION ( 'NONE',  ( -1.000000000000000000, 0.000000000000000000, 0.000000000000000000 ) ) ;
#195 = ADVANCED_FACE ( 'NONE', ( #288 ), #80, .T. ) ;
#196 = ORIENTED_EDGE ( 'NONE', *, *, #56, .T. ) ;
#197 = DIRECTION ( 'NONE',  ( 1.000000000000000000, 0.000000000000000000, -0.000000000000000000 ) ) ;
#198 = PRODUCT_DEFINITION_FORMATION_WITH_SPECIFIED_SOURCE ( 'ANY', '', #272, .NOT_KNOWN. ) ;
#199 = EDGE_LOOP ( 'NONE', ( #267, #12, #176, #193 ) ) ;
#200 = ORIENTED_EDGE ( 'NONE', *, *, #283, .T. ) ;
#201 = CYLINDRICAL_SURFACE ( 'NONE', #224, 5.000000000000000000 ) ;
#202 = FACE_OUTER_BOUND ( 'NONE', #217, .T. ) ;
#203 = ORIENTED_EDGE ( 'NONE', *, *, #56, .F. ) ;
#204 = EDGE_CURVE ( 'NONE', #103, #148, #99, .T. ) ;
#205 = APPROVAL_DATE_TIME ( #29, #215 ) ;
#206 = MANIFOLD_SOLID_BREP ( 'Chanfrein1', #289 ) ;
#207 = DATE_AND_TIME ( #277, #152 ) ;
#208 = CC_DESIGN_PERSON_AND_ORGANIZATION_ASSIGNMENT ( #66, #169, ( #186 ) ) ;
#209 = DIRECTION ( 'NONE',  ( 1.000000000000000000, 0.000000000000000000, 0.000000000000000000 ) ) ;
#210 = PERSON_AND_ORGANIZATION ( #299, #62 ) ;
#211 = DIRECTION ( 'NONE',  ( -1.000000000000000000, 0.000000000000000000, 0.000000000000000000 ) ) ;
#212 = COORDINATED_UNIVERSAL_TIME_OFFSET ( 1, 0, .AHEAD. ) ;
#213 = APPROVAL_PERSON_ORGANIZATION ( #95, #215, #113 ) ;
#214 = ORIENTED_EDGE ( 'NONE', *, *, #139, .T. ) ;
#215 = APPROVAL ( #190, 'UNSPECIFIED' ) ;
#216 =( NAMED_UNIT ( * ) SI_UNIT ( $, .STERADIAN. ) SOLID_ANGLE_UNIT ( ) );
#217 = EDGE_LOOP ( 'NONE', ( #14, #61 ) ) ;
#218 = CARTESIAN_POINT ( 'NONE',  ( 5.000000000000000000, 6.123233995736766282E-16, 5.000000000000000000 ) ) ;
#219 = AXIS2_PLACEMENT_3D ( 'NONE', #53, #145, #119 ) ;
#220 = VERTEX_POINT ( 'NONE', #149 ) ;
#221 = LINE ( 'NONE', #275, #249 ) ;
#222 = UNCERTAINTY_MEASURE_WITH_UNIT (LENGTH_MEASURE( 1.000000000000000082E-05 ), #260, 'distance_accuracy_value', 'NONE');
#223 = CARTESIAN_POINT ( 'NONE',  ( -5.000000000000000000, 0.000000000000000000, 5.000000000000000000 ) ) ;
#224 = AXIS2_PLACEMENT_3D ( 'NONE', #181, #271, #159 ) ;
#225 = EDGE_CURVE ( 'NONE', #101, #174, #265, .T. ) ;
#226 = FACE_OUTER_BOUND ( 'NONE', #81, .T. ) ;
#227 = FACE_OUTER_BOUND ( 'NONE', #33, .T. ) ;
#228 = AXIS2_PLACEMENT_3D ( 'NONE', #76, #55, #211 ) ;
#229 = EDGE_CURVE ( 'NONE', #82, #148, #23, .T. ) ;
#230 = LOCAL_TIME ( 19, 27, 57.00000000000000000, #48 ) ;
#231 = VECTOR ( 'NONE', #134, 1000.000000000000000 ) ;
#232 = PERSON_AND_ORGANIZATION_ROLE ( 'design_owner' ) ;
#233 = APPLICATION_PROTOCOL_DEFINITION ( 'international standard', 'config_control_design', 1994, #118 ) ;
#234 = DIRECTION ( 'NONE',  ( 0.000000000000000000, 0.000000000000000000, 1.000000000000000000 ) ) ;
#235 = ADVANCED_FACE ( 'NONE', ( #59 ), #240, .F. ) ;
#236 = ORIENTED_EDGE ( 'NONE', *, *, #87, .T. ) ;
#237 = DIRECTION ( 'NONE',  ( 0.000000000000000000, 0.000000000000000000, 1.000000000000000000 ) ) ;
#238 = AXIS2_PLACEMENT_3D ( 'NONE', #128, #237, #125 ) ;
#239 = VERTEX_POINT ( 'NONE', #286 ) ;
#240 = CYLINDRICAL_SURFACE ( 'NONE', #268, 5.000000000000000000 ) ;
#241 = DIRECTION ( 'NONE',  ( -0.000000000000000000, -0.000000000000000000, -1.000000000000000000 ) ) ;
#242 = LOCAL_TIME ( 19, 27, 57.00000000000000000, #74 ) ;
#243 = ORIENTED_EDGE ( 'NONE', *, *, #131, .F. ) ;
#244 = DIRECTION ( 'NONE',  ( 1.000000000000000000, 0.000000000000000000, 0.000000000000000000 ) ) ;
#245 = DIRECTION ( 'NONE',  ( 0.000000000000000000, 0.000000000000000000, -1.000000000000000000 ) ) ;
#246 = EDGE_CURVE ( 'NONE', #60, #103, #137, .T. ) ;
#247 = CC_DESIGN_APPROVAL ( #127, ( #186 ) ) ;
#248 = LINE ( 'NONE', #43, #231 ) ;
#249 = VECTOR ( 'NONE', #136, 1000.000000000000000 ) ;
#250 = DIRECTION ( 'NONE',  ( -1.000000000000000000, 0.000000000000000000, 0.000000000000000000 ) ) ;
#251 = AXIS2_PLACEMENT_3D ( 'NONE', #37, #7, #191 ) ;
#252 = PERSON_AND_ORGANIZATION ( #299, #62 ) ;
#253 = PERSON_AND_ORGANIZATION_ROLE ( 'creator' ) ;
#254 = CARTESIAN_POINT ( 'NONE',  ( -5.000000000000000000, 0.000000000000000000, 0.000000000000000000 ) ) ;
#255 = APPLICATION_CONTEXT ( 'configuration controlled 3d designs of mechanical parts and assemblies' ) ;
#256 = APPROVAL_STATUS ( 'not_yet_approved' ) ;
#257 = DIRECTION ( 'NONE',  ( 0.000000000000000000, 0.000000000000000000, 1.000000000000000000 ) ) ;
#258 = FACE_OUTER_BOUND ( 'NONE', #266, .T. ) ;
#259 = COORDINATED_UNIVERSAL_TIME_OFFSET ( 1, 0, .AHEAD. ) ;
#260 =( LENGTH_UNIT ( ) NAMED_UNIT ( * ) SI_UNIT ( .MILLI., .METRE. ) );
#261 =( NAMED_UNIT ( * ) PLANE_ANGLE_UNIT ( ) SI_UNIT ( $, .RADIAN. ) );
#262 = EDGE_CURVE ( 'NONE', #174, #239, #164, .T. ) ;
#263 = ORIENTED_EDGE ( 'NONE', *, *, #180, .F. ) ;
#264 = DIRECTION ( 'NONE',  ( -0.000000000000000000, -0.000000000000000000, -1.000000000000000000 ) ) ;
#265 = LINE ( 'NONE', #147, #97 ) ;
#266 = EDGE_LOOP ( 'NONE', ( #126, #196, #40, #18 ) ) ;
#267 = ORIENTED_EDGE ( 'NONE', *, *, #278, .F. ) ;
#268 = AXIS2_PLACEMENT_3D ( 'NONE', #151, #241, #194 ) ;
#269 = ORIENTED_EDGE ( 'NONE', *, *, #67, .T. ) ;
#270 = CC_DESIGN_DATE_AND_TIME_ASSIGNMENT ( #188, #117, ( #98 ) ) ;
#271 = DIRECTION ( 'NONE',  ( -0.000000000000000000, -0.000000000000000000, -1.000000000000000000 ) ) ;
#272 = PRODUCT ( 'Bague 10mm', 'Bague 10mm', '', ( #146 ) ) ;
#273 = ORIENTED_EDGE ( 'NONE', *, *, #121, .T. ) ;
#274 = AXIS2_PLACEMENT_3D ( 'NONE', #182, #298, #250 ) ;
#275 = CARTESIAN_POINT ( 'NONE',  ( -9.500000000000005329, 0.000000000000000000, 5.000000000000000000 ) ) ;
#276 = FACE_BOUND ( 'NONE', #41, .T. ) ;
#277 = CALENDAR_DATE ( 2024, 11, 12 ) ;
#278 = EDGE_CURVE ( 'NONE', #60, #82, #170, .T. ) ;
#279 = DATE_AND_TIME ( #92, #242 ) ;
#280 = DATE_AND_TIME ( #138, #230 ) ;
#281 = APPROVAL_STATUS ( 'not_yet_approved' ) ;
#282 = CARTESIAN_POINT ( 'NONE',  ( 0.000000000000000000, 0.000000000000000000, 1.999999999999995781 ) ) ;
#283 = EDGE_CURVE ( 'NONE', #101, #123, #122, .T. ) ;
#284 = CARTESIAN_POINT ( 'NONE',  ( -5.000000000000000000, 0.000000000000000000, 5.000000000000000000 ) ) ;
#285 = ORIENTED_EDGE ( 'NONE', *, *, #225, .T. ) ;
#286 = CARTESIAN_POINT ( 'NONE',  ( -12.50000000000000000, 0.000000000000000000, 0.000000000000000000 ) ) ;
#287 = CC_DESIGN_APPROVAL ( #77, ( #198 ) ) ;
#288 = FACE_OUTER_BOUND ( 'NONE', #15, .T. ) ;
#289 = CLOSED_SHELL ( 'NONE', ( #166, #235, #195, #185, #25, #49, #108, #100 ) ) ;
#290 = CIRCLE ( 'NONE', #219, 9.500000000000005329 ) ;
#291 = ORIENTED_EDGE ( 'NONE', *, *, #278, .T. ) ;
#292 = CIRCLE ( 'NONE', #110, 12.50000000000000000 ) ;
#293 = CARTESIAN_POINT ( 'NONE',  ( 0.000000000000000000, 0.000000000000000000, 0.000000000000000000 ) ) ;
#294 = CC_DESIGN_PERSON_AND_ORGANIZATION_ASSIGNMENT ( #184, #253, ( #198 ) ) ;
#295 = VECTOR ( 'NONE', #16, 1000.000000000000000 ) ;
#296 = ORIENTED_EDGE ( 'NONE', *, *, #283, .F. ) ;
#297 = DIRECTION ( 'NONE',  ( 1.000000000000000000, 0.000000000000000000, 0.000000000000000000 ) ) ;
#298 = DIRECTION ( 'NONE',  ( -0.000000000000000000, -0.000000000000000000, -1.000000000000000000 ) ) ;
#299 = PERSON ( 'UNSPECIFIED', 'UNSPECIFIED', 'UNSPECIFIED', ('UNSPECIFIED'), ('UNSPECIFIED'), ('UNSPECIFIED') ) ;
ENDSEC;
END-ISO-10303-21;
