ISO-10303-21;
HEADER;
FILE_DESCRIPTION (( 'STEP AP203' ),
    '1' );
FILE_NAME ('Bague 8mm.STEP',
    '2024-11-26T16:00:17',
    ( '' ),
    ( '' ),
    'SwSTEP 2.0',
    'SolidWorks 2024',
    '' );
FILE_SCHEMA (( 'CONFIG_CONTROL_DESIGN' ));
ENDSEC;

DATA;
#1 = CC_DESIGN_PERSON_AND_ORGANIZATION_ASSIGNMENT ( #175, #292, ( #170 ) ) ;
#2 =( LENGTH_UNIT ( ) NAMED_UNIT ( * ) SI_UNIT ( .MILLI., .METRE. ) );
#3 = ADVANCED_FACE ( 'NONE', ( #228, #234 ), #111, .F. ) ;
#4 = CARTESIAN_POINT ( 'NONE',  ( 0.000000000000000000, 0.000000000000000000, 5.000000000000000000 ) ) ;
#5 = CARTESIAN_POINT ( 'NONE',  ( 0.000000000000000000, 0.000000000000000000, 1.999999999999992228 ) ) ;
#6 = CARTESIAN_POINT ( 'NONE',  ( 0.000000000000000000, 0.000000000000000000, 0.000000000000000000 ) ) ;
#7 = AXIS2_PLACEMENT_3D ( 'NONE', #236, #96, #299 ) ;
#8 = CALENDAR_DATE ( 2024, 26, 11 ) ;
#9 = PERSON_AND_ORGANIZATION_ROLE ( 'creator' ) ;
#10 = ORIENTED_EDGE ( 'NONE', *, *, #168, .T. ) ;
#11 = APPROVAL ( #224, 'UNSPECIFIED' ) ;
#12 = PERSON_AND_ORGANIZATION ( #191, #255 ) ;
#13 = ORIENTED_EDGE ( 'NONE', *, *, #108, .F. ) ;
#14 = CALENDAR_DATE ( 2024, 26, 11 ) ;
#15 = ORIENTED_EDGE ( 'NONE', *, *, #204, .F. ) ;
#16 = ORIENTED_EDGE ( 'NONE', *, *, #91, .T. ) ;
#17 = ADVANCED_BREP_SHAPE_REPRESENTATION ( 'Bague 8mm', ( #294, #26 ), #158 ) ;
#18 = EDGE_LOOP ( 'NONE', ( #207, #16, #114, #161 ) ) ;
#19 = ORIENTED_EDGE ( 'NONE', *, *, #115, .T. ) ;
#20 = ORIENTED_EDGE ( 'NONE', *, *, #168, .F. ) ;
#21 = FACE_OUTER_BOUND ( 'NONE', #267, .T. ) ;
#22 = CARTESIAN_POINT ( 'NONE',  ( 10.00000000000000000, 1.224646799147353256E-15, 1.999999999999992228 ) ) ;
#23 = CARTESIAN_POINT ( 'NONE',  ( 10.00000000000000000, 1.224646799147353256E-15, 0.000000000000000000 ) ) ;
#24 = FACE_OUTER_BOUND ( 'NONE', #199, .T. ) ;
#25 = CONICAL_SURFACE ( 'NONE', #88, 7.000000000000002665, 0.7853981633974466137 ) ;
#26 = AXIS2_PLACEMENT_3D ( 'NONE', #38, #220, #270 ) ;
#27 = DIRECTION ( 'NONE',  ( 0.000000000000000000, 0.000000000000000000, 1.000000000000000000 ) ) ;
#28 = DIRECTION ( 'NONE',  ( 0.000000000000000000, 0.000000000000000000, 1.000000000000000000 ) ) ;
#29 = PERSON_AND_ORGANIZATION ( #191, #255 ) ;
#30 = CC_DESIGN_SECURITY_CLASSIFICATION ( #94, ( #215 ) ) ;
#31 = APPROVAL_DATE_TIME ( #196, #11 ) ;
#32 = ORIENTED_EDGE ( 'NONE', *, *, #108, .T. ) ;
#33 = CC_DESIGN_DATE_AND_TIME_ASSIGNMENT ( #265, #155, ( #154 ) ) ;
#34 = CALENDAR_DATE ( 2024, 26, 11 ) ;
#35 = EDGE_CURVE ( 'NONE', #104, #205, #42, .T. ) ;
#36 = SECURITY_CLASSIFICATION_LEVEL ( 'unclassified' ) ;
#37 = VERTEX_POINT ( 'NONE', #46 ) ;
#38 = CARTESIAN_POINT ( 'NONE',  ( 0.000000000000000000, 0.000000000000000000, 0.000000000000000000 ) ) ;
#39 = ORIENTED_EDGE ( 'NONE', *, *, #271, .F. ) ;
#40 = EDGE_CURVE ( 'NONE', #90, #133, #87, .T. ) ;
#41 = LINE ( 'NONE', #256, #99 ) ;
#42 = LINE ( 'NONE', #112, #136 ) ;
#43 = VECTOR ( 'NONE', #137, 1000.000000000000000 ) ;
#44 = DIRECTION ( 'NONE',  ( 1.000000000000000000, 0.000000000000000000, -0.000000000000000000 ) ) ;
#45 = VERTEX_POINT ( 'NONE', #84 ) ;
#46 = CARTESIAN_POINT ( 'NONE',  ( -10.00000000000000000, 0.000000000000000000, 0.000000000000000000 ) ) ;
#47 = CIRCLE ( 'NONE', #214, 10.00000000000000000 ) ;
#48 = DIRECTION ( 'NONE',  ( 0.000000000000000000, 0.000000000000000000, 1.000000000000000000 ) ) ;
#49 = DIRECTION ( 'NONE',  ( 1.000000000000000000, 0.000000000000000000, 0.000000000000000000 ) ) ;
#50 = PRODUCT_DEFINITION_SHAPE ( 'NONE', 'NONE',  #154 ) ;
#51 = DIRECTION ( 'NONE',  ( 1.000000000000000000, 0.000000000000000000, 0.000000000000000000 ) ) ;
#52 = DIRECTION ( 'NONE',  ( 1.000000000000000000, 0.000000000000000000, 0.000000000000000000 ) ) ;
#53 =( NAMED_UNIT ( * ) PLANE_ANGLE_UNIT ( ) SI_UNIT ( $, .RADIAN. ) );
#54 = CALENDAR_DATE ( 2024, 26, 11 ) ;
#55 = EDGE_CURVE ( 'NONE', #249, #37, #186, .T. ) ;
#56 = ORIENTED_EDGE ( 'NONE', *, *, #115, .F. ) ;
#57 = LOCAL_TIME ( 17, 0, 17.00000000000000000, #132 ) ;
#58 = MECHANICAL_CONTEXT ( 'NONE', #172, 'mechanical' ) ;
#59 = ORIENTED_EDGE ( 'NONE', *, *, #148, .F. ) ;
#60 =( NAMED_UNIT ( * ) SI_UNIT ( $, .STERADIAN. ) SOLID_ANGLE_UNIT ( ) );
#61 = AXIS2_PLACEMENT_3D ( 'NONE', #106, #298, #159 ) ;
#62 = ADVANCED_FACE ( 'NONE', ( #189 ), #164, .T. ) ;
#63 = ORIENTED_EDGE ( 'NONE', *, *, #165, .F. ) ;
#64 = DIRECTION ( 'NONE',  ( -1.000000000000000000, 0.000000000000000000, 0.000000000000000000 ) ) ;
#65 = AXIS2_PLACEMENT_3D ( 'NONE', #195, #73, #52 ) ;
#66 = CC_DESIGN_APPROVAL ( #11, ( #215 ) ) ;
#67 = DIRECTION ( 'NONE',  ( -0.000000000000000000, -0.000000000000000000, -1.000000000000000000 ) ) ;
#68 = CARTESIAN_POINT ( 'NONE',  ( 4.000000000000000000, 4.898587196589412829E-16, 5.000000000000000000 ) ) ;
#69 = CARTESIAN_POINT ( 'NONE',  ( 0.000000000000000000, 0.000000000000000000, 5.000000000000000000 ) ) ;
#70 = CIRCLE ( 'NONE', #119, 7.000000000000002665 ) ;
#71 = CIRCLE ( 'NONE', #109, 4.000000000000000000 ) ;
#72 = CARTESIAN_POINT ( 'NONE',  ( 7.000000000000002665, 8.572527594031475162E-16, 5.000000000000000000 ) ) ;
#73 = DIRECTION ( 'NONE',  ( 0.000000000000000000, 0.000000000000000000, 1.000000000000000000 ) ) ;
#74 = DIRECTION ( 'NONE',  ( 0.000000000000000000, 0.000000000000000000, 1.000000000000000000 ) ) ;
#75 = DIRECTION ( 'NONE',  ( 1.000000000000000000, 0.000000000000000000, 0.000000000000000000 ) ) ;
#76 = APPROVAL_DATE_TIME ( #79, #251 ) ;
#77 = PERSON_AND_ORGANIZATION_ROLE ( 'classification_officer' ) ;
#78 = ORIENTED_EDGE ( 'NONE', *, *, #121, .T. ) ;
#79 = DATE_AND_TIME ( #176, #57 ) ;
#80 = VECTOR ( 'NONE', #67, 1000.000000000000000 ) ;
#81 = APPROVAL_ROLE ( '' ) ;
#82 = ORIENTED_EDGE ( 'NONE', *, *, #40, .T. ) ;
#83 = AXIS2_PLACEMENT_3D ( 'NONE', #216, #194, #259 ) ;
#84 = CARTESIAN_POINT ( 'NONE',  ( 7.000000000000002665, 1.040949779275250337E-15, 5.000000000000000000 ) ) ;
#85 = CC_DESIGN_PERSON_AND_ORGANIZATION_ASSIGNMENT ( #29, #9, ( #154 ) ) ;
#86 = FACE_OUTER_BOUND ( 'NONE', #254, .T. ) ;
#87 = LINE ( 'NONE', #209, #43 ) ;
#88 = AXIS2_PLACEMENT_3D ( 'NONE', #273, #184, #64 ) ;
#89 = ORIENTED_EDGE ( 'NONE', *, *, #221, .F. ) ;
#90 = VERTEX_POINT ( 'NONE', #297 ) ;
#91 = EDGE_CURVE ( 'NONE', #156, #269, #41, .T. ) ;
#92 = LINE ( 'NONE', #117, #131 ) ;
#93 = CLOSED_SHELL ( 'NONE', ( #105, #179, #62, #258, #3, #144, #95, #232 ) ) ;
#94 = SECURITY_CLASSIFICATION ( '', '', #36 ) ;
#95 = ADVANCED_FACE ( 'NONE', ( #21 ), #135, .F. ) ;
#96 = DIRECTION ( 'NONE',  ( 0.000000000000000000, 0.000000000000000000, 1.000000000000000000 ) ) ;
#97 = DIRECTION ( 'NONE',  ( -0.000000000000000000, -0.000000000000000000, -1.000000000000000000 ) ) ;
#98 = APPLICATION_CONTEXT ( 'configuration controlled 3d designs of mechanical parts and assemblies' ) ;
#99 = VECTOR ( 'NONE', #183, 1000.000000000000000 ) ;
#100 = CARTESIAN_POINT ( 'NONE',  ( 4.000000000000000000, 4.898587196589412829E-16, 0.000000000000000000 ) ) ;
#101 = APPROVAL_ROLE ( '' ) ;
#102 = VERTEX_POINT ( 'NONE', #295 ) ;
#103 = LOCAL_TIME ( 17, 0, 17.00000000000000000, #266 ) ;
#104 = VERTEX_POINT ( 'NONE', #68 ) ;
#105 = ADVANCED_FACE ( 'NONE', ( #86 ), #25, .T. ) ;
#106 = CARTESIAN_POINT ( 'NONE',  ( 0.000000000000000000, 0.000000000000000000, 5.000000000000000000 ) ) ;
#107 = CIRCLE ( 'NONE', #181, 10.00000000000000000 ) ;
#108 = EDGE_CURVE ( 'NONE', #45, #156, #162, .T. ) ;
#109 = AXIS2_PLACEMENT_3D ( 'NONE', #69, #48, #166 ) ;
#110 = CARTESIAN_POINT ( 'NONE',  ( 0.000000000000000000, 0.000000000000000000, 5.000000000000000000 ) ) ;
#111 = PLANE ( 'NONE',  #187 ) ;
#112 = CARTESIAN_POINT ( 'NONE',  ( 4.000000000000000000, 4.898587196589412829E-16, 5.000000000000000000 ) ) ;
#113 = APPROVAL_PERSON_ORGANIZATION ( #128, #142, #81 ) ;
#114 = ORIENTED_EDGE ( 'NONE', *, *, #165, .T. ) ;
#115 = EDGE_CURVE ( 'NONE', #102, #45, #70, .T. ) ;
#116 = CARTESIAN_POINT ( 'NONE',  ( 0.000000000000000000, 0.000000000000000000, 0.000000000000000000 ) ) ;
#117 = CARTESIAN_POINT ( 'NONE',  ( -7.000000000000002665, 0.000000000000000000, 5.000000000000000000 ) ) ;
#118 = CC_DESIGN_PERSON_AND_ORGANIZATION_ASSIGNMENT ( #152, #178, ( #215 ) ) ;
#119 = AXIS2_PLACEMENT_3D ( 'NONE', #262, #140, #75 ) ;
#120 = DIRECTION ( 'NONE',  ( 0.7071067811865463515, 8.659560562354919300E-17, -0.7071067811865487940 ) ) ;
#121 = EDGE_CURVE ( 'NONE', #156, #249, #107, .T. ) ;
#122 = DIRECTION ( 'NONE',  ( 1.000000000000000000, 0.000000000000000000, -0.000000000000000000 ) ) ;
#123 = CYLINDRICAL_SURFACE ( 'NONE', #83, 4.000000000000000000 ) ;
#124 = CIRCLE ( 'NONE', #65, 4.000000000000000000 ) ;
#125 = COORDINATED_UNIVERSAL_TIME_OFFSET ( 1, 0, .AHEAD. ) ;
#126 = CIRCLE ( 'NONE', #7, 10.00000000000000000 ) ;
#127 = COORDINATED_UNIVERSAL_TIME_OFFSET ( 1, 0, .AHEAD. ) ;
#128 = PERSON_AND_ORGANIZATION ( #191, #255 ) ;
#129 = CC_DESIGN_DATE_AND_TIME_ASSIGNMENT ( #150, #243, ( #94 ) ) ;
#130 = ORIENTED_EDGE ( 'NONE', *, *, #160, .T. ) ;
#131 = VECTOR ( 'NONE', #280, 1000.000000000000000 ) ;
#132 = COORDINATED_UNIVERSAL_TIME_OFFSET ( 1, 0, .AHEAD. ) ;
#133 = VERTEX_POINT ( 'NONE', #174 ) ;
#134 = EDGE_LOOP ( 'NONE', ( #15, #63 ) ) ;
#135 = CYLINDRICAL_SURFACE ( 'NONE', #226, 4.000000000000000000 ) ;
#136 = VECTOR ( 'NONE', #257, 1000.000000000000000 ) ;
#137 = DIRECTION ( 'NONE',  ( -0.000000000000000000, -0.000000000000000000, -1.000000000000000000 ) ) ;
#138 = ORIENTED_EDGE ( 'NONE', *, *, #35, .F. ) ;
#139 = EDGE_LOOP ( 'NONE', ( #290, #277 ) ) ;
#140 = DIRECTION ( 'NONE',  ( 0.000000000000000000, 0.000000000000000000, 1.000000000000000000 ) ) ;
#141 = CYLINDRICAL_SURFACE ( 'NONE', #219, 10.00000000000000000 ) ;
#142 = APPROVAL ( #201, 'UNSPECIFIED' ) ;
#143 = CARTESIAN_POINT ( 'NONE',  ( 0.000000000000000000, 0.000000000000000000, 0.000000000000000000 ) ) ;
#144 = ADVANCED_FACE ( 'NONE', ( #173 ), #141, .T. ) ;
#145 = LOCAL_TIME ( 17, 0, 17.00000000000000000, #248 ) ;
#146 = FACE_BOUND ( 'NONE', #223, .T. ) ;
#147 = FACE_OUTER_BOUND ( 'NONE', #250, .T. ) ;
#148 = EDGE_CURVE ( 'NONE', #249, #156, #47, .T. ) ;
#149 = PERSON_AND_ORGANIZATION ( #191, #255 ) ;
#150 = DATE_AND_TIME ( #54, #103 ) ;
#151 = ORIENTED_EDGE ( 'NONE', *, *, #40, .F. ) ;
#152 = PERSON_AND_ORGANIZATION ( #191, #255 ) ;
#153 = ORIENTED_EDGE ( 'NONE', *, *, #91, .F. ) ;
#154 = PRODUCT_DEFINITION ( 'UNKNOWN', '', #215, #291 ) ;
#155 = DATE_TIME_ROLE ( 'creation_date' ) ;
#156 = VERTEX_POINT ( 'NONE', #22 ) ;
#157 = APPLICATION_PROTOCOL_DEFINITION ( 'international standard', 'config_control_design', 1994, #172 ) ;
#158 =( GEOMETRIC_REPRESENTATION_CONTEXT ( 3 ) GLOBAL_UNCERTAINTY_ASSIGNED_CONTEXT ( ( #244 ) ) GLOBAL_UNIT_ASSIGNED_CONTEXT ( ( #2, #53, #60 ) ) REPRESENTATION_CONTEXT ( 'NONE', 'WORKASPACE' ) );
#159 = DIRECTION ( 'NONE',  ( -1.000000000000000000, 0.000000000000000000, 0.000000000000000000 ) ) ;
#160 = EDGE_CURVE ( 'NONE', #45, #102, #253, .T. ) ;
#161 = ORIENTED_EDGE ( 'NONE', *, *, #55, .F. ) ;
#162 = LINE ( 'NONE', #72, #163 ) ;
#163 = VECTOR ( 'NONE', #120, 1000.000000000000000 ) ;
#164 = CYLINDRICAL_SURFACE ( 'NONE', #61, 10.00000000000000000 ) ;
#165 = EDGE_CURVE ( 'NONE', #269, #37, #260, .T. ) ;
#166 = DIRECTION ( 'NONE',  ( 1.000000000000000000, 0.000000000000000000, 0.000000000000000000 ) ) ;
#167 = APPROVAL_PERSON_ORGANIZATION ( #241, #11, #101 ) ;
#168 = EDGE_CURVE ( 'NONE', #104, #90, #124, .T. ) ;
#169 = CARTESIAN_POINT ( 'NONE',  ( 0.000000000000000000, 0.000000000000000000, 5.000000000000000000 ) ) ;
#170 = PRODUCT ( 'Bague 8mm', 'Bague 8mm', '', ( #58 ) ) ;
#171 = CARTESIAN_POINT ( 'NONE',  ( 0.000000000000000000, 0.000000000000000000, 1.999999999999992228 ) ) ;
#172 = APPLICATION_CONTEXT ( 'configuration controlled 3d designs of mechanical parts and assemblies' ) ;
#173 = FACE_OUTER_BOUND ( 'NONE', #203, .T. ) ;
#174 = CARTESIAN_POINT ( 'NONE',  ( -4.000000000000000000, 0.000000000000000000, 0.000000000000000000 ) ) ;
#175 = PERSON_AND_ORGANIZATION ( #191, #255 ) ;
#176 = CALENDAR_DATE ( 2024, 26, 11 ) ;
#177 = EDGE_LOOP ( 'NONE', ( #231, #229, #225, #151 ) ) ;
#178 = PERSON_AND_ORGANIZATION_ROLE ( 'creator' ) ;
#179 = ADVANCED_FACE ( 'NONE', ( #212 ), #123, .F. ) ;
#180 = ORIENTED_EDGE ( 'NONE', *, *, #204, .T. ) ;
#181 = AXIS2_PLACEMENT_3D ( 'NONE', #5, #213, #49 ) ;
#182 = CIRCLE ( 'NONE', #210, 4.000000000000000000 ) ;
#183 = DIRECTION ( 'NONE',  ( -0.000000000000000000, -0.000000000000000000, -1.000000000000000000 ) ) ;
#184 = DIRECTION ( 'NONE',  ( 0.000000000000000000, 0.000000000000000000, -1.000000000000000000 ) ) ;
#185 = EDGE_CURVE ( 'NONE', #205, #133, #230, .T. ) ;
#186 = LINE ( 'NONE', #274, #80 ) ;
#187 = AXIS2_PLACEMENT_3D ( 'NONE', #233, #208, #44 ) ;
#188 = DIRECTION ( 'NONE',  ( -0.000000000000000000, -0.000000000000000000, -1.000000000000000000 ) ) ;
#189 = FACE_OUTER_BOUND ( 'NONE', #18, .T. ) ;
#190 = DIRECTION ( 'NONE',  ( -1.000000000000000000, 0.000000000000000000, 0.000000000000000000 ) ) ;
#191 = PERSON ( 'UNSPECIFIED', 'UNSPECIFIED', 'UNSPECIFIED', ('UNSPECIFIED'), ('UNSPECIFIED'), ('UNSPECIFIED') ) ;
#192 = DIRECTION ( 'NONE',  ( 0.000000000000000000, 0.000000000000000000, 1.000000000000000000 ) ) ;
#193 = DIRECTION ( 'NONE',  ( -1.000000000000000000, 0.000000000000000000, 0.000000000000000000 ) ) ;
#194 = DIRECTION ( 'NONE',  ( -0.000000000000000000, -0.000000000000000000, -1.000000000000000000 ) ) ;
#195 = CARTESIAN_POINT ( 'NONE',  ( 0.000000000000000000, 0.000000000000000000, 5.000000000000000000 ) ) ;
#196 = DATE_AND_TIME ( #8, #238 ) ;
#197 = CC_DESIGN_PERSON_AND_ORGANIZATION_ASSIGNMENT ( #285, #77, ( #94 ) ) ;
#198 = APPROVAL_DATE_TIME ( #222, #142 ) ;
#199 = EDGE_LOOP ( 'NONE', ( #13, #56, #272, #252 ) ) ;
#200 = AXIS2_PLACEMENT_3D ( 'NONE', #116, #28, #51 ) ;
#201 = APPROVAL_STATUS ( 'not_yet_approved' ) ;
#202 = AXIS2_PLACEMENT_3D ( 'NONE', #239, #27, #122 ) ;
#203 = EDGE_LOOP ( 'NONE', ( #153, #78, #293, #180 ) ) ;
#204 = EDGE_CURVE ( 'NONE', #37, #269, #126, .T. ) ;
#205 = VERTEX_POINT ( 'NONE', #100 ) ;
#206 = AXIS2_PLACEMENT_3D ( 'NONE', #143, #217, #218 ) ;
#207 = ORIENTED_EDGE ( 'NONE', *, *, #148, .T. ) ;
#208 = DIRECTION ( 'NONE',  ( 0.000000000000000000, 0.000000000000000000, 1.000000000000000000 ) ) ;
#209 = CARTESIAN_POINT ( 'NONE',  ( -4.000000000000000000, 0.000000000000000000, 5.000000000000000000 ) ) ;
#210 = AXIS2_PLACEMENT_3D ( 'NONE', #6, #74, #281 ) ;
#211 = ORIENTED_EDGE ( 'NONE', *, *, #160, .F. ) ;
#212 = FACE_OUTER_BOUND ( 'NONE', #177, .T. ) ;
#213 = DIRECTION ( 'NONE',  ( 0.000000000000000000, 0.000000000000000000, -1.000000000000000000 ) ) ;
#214 = AXIS2_PLACEMENT_3D ( 'NONE', #171, #235, #261 ) ;
#215 = PRODUCT_DEFINITION_FORMATION_WITH_SPECIFIED_SOURCE ( 'ANY', '', #170, .NOT_KNOWN. ) ;
#216 = CARTESIAN_POINT ( 'NONE',  ( 0.000000000000000000, 0.000000000000000000, 5.000000000000000000 ) ) ;
#217 = DIRECTION ( 'NONE',  ( 0.000000000000000000, 0.000000000000000000, 1.000000000000000000 ) ) ;
#218 = DIRECTION ( 'NONE',  ( 1.000000000000000000, 0.000000000000000000, 0.000000000000000000 ) ) ;
#219 = AXIS2_PLACEMENT_3D ( 'NONE', #169, #97, #190 ) ;
#220 = DIRECTION ( 'NONE',  ( 0.000000000000000000, 0.000000000000000000, 1.000000000000000000 ) ) ;
#221 = EDGE_CURVE ( 'NONE', #102, #249, #92, .T. ) ;
#222 = DATE_AND_TIME ( #34, #275 ) ;
#223 = EDGE_LOOP ( 'NONE', ( #39, #20 ) ) ;
#224 = APPROVAL_STATUS ( 'not_yet_approved' ) ;
#225 = ORIENTED_EDGE ( 'NONE', *, *, #237, .F. ) ;
#226 = AXIS2_PLACEMENT_3D ( 'NONE', #110, #188, #276 ) ;
#227 = APPROVAL_STATUS ( 'not_yet_approved' ) ;
#228 = FACE_OUTER_BOUND ( 'NONE', #134, .T. ) ;
#229 = ORIENTED_EDGE ( 'NONE', *, *, #35, .T. ) ;
#230 = CIRCLE ( 'NONE', #206, 4.000000000000000000 ) ;
#231 = ORIENTED_EDGE ( 'NONE', *, *, #271, .T. ) ;
#232 = ADVANCED_FACE ( 'NONE', ( #24 ), #288, .T. ) ;
#233 = CARTESIAN_POINT ( 'NONE',  ( 0.000000000000000000, 0.000000000000000000, 0.000000000000000000 ) ) ;
#234 = FACE_BOUND ( 'NONE', #139, .T. ) ;
#235 = DIRECTION ( 'NONE',  ( 0.000000000000000000, 0.000000000000000000, -1.000000000000000000 ) ) ;
#236 = CARTESIAN_POINT ( 'NONE',  ( 0.000000000000000000, 0.000000000000000000, 0.000000000000000000 ) ) ;
#237 = EDGE_CURVE ( 'NONE', #133, #205, #182, .T. ) ;
#238 = LOCAL_TIME ( 17, 0, 17.00000000000000000, #125 ) ;
#239 = CARTESIAN_POINT ( 'NONE',  ( 0.000000000000000000, 0.000000000000000000, 5.000000000000000000 ) ) ;
#240 = CARTESIAN_POINT ( 'NONE',  ( 0.000000000000000000, 0.000000000000000000, 5.000000000000000000 ) ) ;
#241 = PERSON_AND_ORGANIZATION ( #191, #255 ) ;
#242 = AXIS2_PLACEMENT_3D ( 'NONE', #240, #282, #193 ) ;
#243 = DATE_TIME_ROLE ( 'classification_date' ) ;
#244 = UNCERTAINTY_MEASURE_WITH_UNIT (LENGTH_MEASURE( 1.000000000000000082E-05 ), #2, 'distance_accuracy_value', 'NONE');
#245 = SHAPE_DEFINITION_REPRESENTATION ( #50, #17 ) ;
#246 = APPLICATION_PROTOCOL_DEFINITION ( 'international standard', 'config_control_design', 1994, #98 ) ;
#247 = APPROVAL_PERSON_ORGANIZATION ( #149, #251, #284 ) ;
#248 = COORDINATED_UNIVERSAL_TIME_OFFSET ( 1, 0, .AHEAD. ) ;
#249 = VERTEX_POINT ( 'NONE', #263 ) ;
#250 = EDGE_LOOP ( 'NONE', ( #19, #130 ) ) ;
#251 = APPROVAL ( #227, 'UNSPECIFIED' ) ;
#252 = ORIENTED_EDGE ( 'NONE', *, *, #121, .F. ) ;
#253 = CIRCLE ( 'NONE', #287, 7.000000000000002665 ) ;
#254 = EDGE_LOOP ( 'NONE', ( #211, #32, #59, #89 ) ) ;
#255 = ORGANIZATION ( 'UNSPECIFIED', 'UNSPECIFIED', '' ) ;
#256 = CARTESIAN_POINT ( 'NONE',  ( 10.00000000000000000, 1.224646799147353256E-15, 5.000000000000000000 ) ) ;
#257 = DIRECTION ( 'NONE',  ( -0.000000000000000000, -0.000000000000000000, -1.000000000000000000 ) ) ;
#258 = ADVANCED_FACE ( 'NONE', ( #147, #146 ), #278, .T. ) ;
#259 = DIRECTION ( 'NONE',  ( -1.000000000000000000, 0.000000000000000000, 0.000000000000000000 ) ) ;
#260 = CIRCLE ( 'NONE', #200, 10.00000000000000000 ) ;
#261 = DIRECTION ( 'NONE',  ( 1.000000000000000000, 0.000000000000000000, 0.000000000000000000 ) ) ;
#262 = CARTESIAN_POINT ( 'NONE',  ( 0.000000000000000000, 0.000000000000000000, 5.000000000000000000 ) ) ;
#263 = CARTESIAN_POINT ( 'NONE',  ( -10.00000000000000000, 0.000000000000000000, 1.999999999999992228 ) ) ;
#264 = DIRECTION ( 'NONE',  ( 1.000000000000000000, 0.000000000000000000, 0.000000000000000000 ) ) ;
#265 = DATE_AND_TIME ( #14, #145 ) ;
#266 = COORDINATED_UNIVERSAL_TIME_OFFSET ( 1, 0, .AHEAD. ) ;
#267 = EDGE_LOOP ( 'NONE', ( #138, #10, #82, #296 ) ) ;
#268 = CC_DESIGN_APPROVAL ( #142, ( #94 ) ) ;
#269 = VERTEX_POINT ( 'NONE', #23 ) ;
#270 = DIRECTION ( 'NONE',  ( 1.000000000000000000, 0.000000000000000000, 0.000000000000000000 ) ) ;
#271 = EDGE_CURVE ( 'NONE', #90, #104, #71, .T. ) ;
#272 = ORIENTED_EDGE ( 'NONE', *, *, #221, .T. ) ;
#273 = CARTESIAN_POINT ( 'NONE',  ( 0.000000000000000000, 0.000000000000000000, 5.000000000000000000 ) ) ;
#274 = CARTESIAN_POINT ( 'NONE',  ( -10.00000000000000000, 0.000000000000000000, 5.000000000000000000 ) ) ;
#275 = LOCAL_TIME ( 17, 0, 17.00000000000000000, #127 ) ;
#276 = DIRECTION ( 'NONE',  ( -1.000000000000000000, 0.000000000000000000, 0.000000000000000000 ) ) ;
#277 = ORIENTED_EDGE ( 'NONE', *, *, #185, .T. ) ;
#278 = PLANE ( 'NONE',  #202 ) ;
#279 = PRODUCT_RELATED_PRODUCT_CATEGORY ( 'detail', '', ( #170 ) ) ;
#280 = DIRECTION ( 'NONE',  ( -0.7071067811865463515, 0.000000000000000000, -0.7071067811865487940 ) ) ;
#281 = DIRECTION ( 'NONE',  ( 1.000000000000000000, 0.000000000000000000, 0.000000000000000000 ) ) ;
#282 = DIRECTION ( 'NONE',  ( 0.000000000000000000, 0.000000000000000000, -1.000000000000000000 ) ) ;
#283 = CC_DESIGN_APPROVAL ( #251, ( #154 ) ) ;
#284 = APPROVAL_ROLE ( '' ) ;
#285 = PERSON_AND_ORGANIZATION ( #191, #255 ) ;
#286 = PERSON_AND_ORGANIZATION_ROLE ( 'design_supplier' ) ;
#287 = AXIS2_PLACEMENT_3D ( 'NONE', #4, #192, #264 ) ;
#288 = CONICAL_SURFACE ( 'NONE', #242, 7.000000000000002665, 0.7853981633974466137 ) ;
#289 = CC_DESIGN_PERSON_AND_ORGANIZATION_ASSIGNMENT ( #12, #286, ( #215 ) ) ;
#290 = ORIENTED_EDGE ( 'NONE', *, *, #237, .T. ) ;
#291 = DESIGN_CONTEXT ( 'detailed design', #98, 'design' ) ;
#292 = PERSON_AND_ORGANIZATION_ROLE ( 'design_owner' ) ;
#293 = ORIENTED_EDGE ( 'NONE', *, *, #55, .T. ) ;
#294 = MANIFOLD_SOLID_BREP ( 'Chanfrein1', #93 ) ;
#295 = CARTESIAN_POINT ( 'NONE',  ( -7.000000000000002665, 0.000000000000000000, 5.000000000000000000 ) ) ;
#296 = ORIENTED_EDGE ( 'NONE', *, *, #185, .F. ) ;
#297 = CARTESIAN_POINT ( 'NONE',  ( -4.000000000000000000, 0.000000000000000000, 5.000000000000000000 ) ) ;
#298 = DIRECTION ( 'NONE',  ( -0.000000000000000000, -0.000000000000000000, -1.000000000000000000 ) ) ;
#299 = DIRECTION ( 'NONE',  ( 1.000000000000000000, 0.000000000000000000, 0.000000000000000000 ) ) ;
ENDSEC;
END-ISO-10303-21;
