ISO-10303-21;
HEADER;
/* Generated by software containing ST-Developer
 * from STEP Tools, Inc. (www.steptools.com) 
 */

FILE_DESCRIPTION(
/* description */ ('',
'CAx-IF Rec.Pracs.---Representation and Presentation of Product Manufa
cturing Information (PMI)---4.0---2014-10-13'),
/* implementation_level */ '2;1');

FILE_NAME(
/* name */ '4 oip v0.step',
/* time_stamp */ '2024-12-06T10:43:47+01:00',
/* author */ (''),
/* organization */ (''),
/* preprocessor_version */ 'ST-DEVELOPER v20',
/* originating_system */ 'Autodesk Translation Framework v13.20.0.188',

/* authorisation */ '');

FILE_SCHEMA (('AP242_MANAGED_MODEL_BASED_3D_ENGINEERING_MIM_LF { 1 0 10303 442 1 1 4 }'));
ENDSEC;

DATA;
#10=MECHANICAL_DESIGN_GEOMETRIC_PRESENTATION_REPRESENTATION('',(#13),#140);
#11=SHAPE_REPRESENTATION_RELATIONSHIP('SRR','None',#147,#12);
#12=ADVANCED_BREP_SHAPE_REPRESENTATION('',(#14),#139);
#13=STYLED_ITEM('',(#156),#14);
#14=MANIFOLD_SOLID_BREP('Tige maintien 1',#73);
#15=FACE_BOUND('',#29,.T.);
#16=PLANE('',#92);
#17=PLANE('',#93);
#18=CYLINDRICAL_SURFACE('',#89,1.5);
#19=CYLINDRICAL_SURFACE('',#95,2.4505);
#20=FACE_OUTER_BOUND('',#25,.T.);
#21=FACE_OUTER_BOUND('',#26,.T.);
#22=FACE_OUTER_BOUND('',#27,.T.);
#23=FACE_OUTER_BOUND('',#28,.T.);
#24=FACE_OUTER_BOUND('',#30,.T.);
#25=EDGE_LOOP('',(#53,#54,#55));
#26=EDGE_LOOP('',(#56,#57,#58,#59));
#27=EDGE_LOOP('',(#60));
#28=EDGE_LOOP('',(#61));
#29=EDGE_LOOP('',(#62));
#30=EDGE_LOOP('',(#63,#64,#65,#66));
#31=CIRCLE('',#88,2.4505);
#32=CIRCLE('',#90,1.5);
#33=CIRCLE('',#91,1.5);
#34=CIRCLE('',#94,2.4505);
#35=LINE('',#123,#38);
#36=LINE('',#129,#39);
#37=LINE('',#136,#40);
#38=VECTOR('',#100,2.4505);
#39=VECTOR('',#107,1.5);
#40=VECTOR('',#118,2.5);
#41=VERTEX_POINT('',#121);
#42=VERTEX_POINT('',#122);
#43=VERTEX_POINT('',#126);
#44=VERTEX_POINT('',#128);
#45=VERTEX_POINT('',#133);
#46=EDGE_CURVE('',#41,#42,#35,.T.);
#47=EDGE_CURVE('',#42,#42,#31,.F.);
#48=EDGE_CURVE('',#43,#43,#32,.T.);
#49=EDGE_CURVE('',#43,#44,#36,.T.);
#50=EDGE_CURVE('',#44,#44,#33,.T.);
#51=EDGE_CURVE('',#45,#45,#34,.T.);
#52=EDGE_CURVE('',#42,#45,#37,.T.);
#53=ORIENTED_EDGE('',*,*,#46,.T.);
#54=ORIENTED_EDGE('',*,*,#47,.T.);
#55=ORIENTED_EDGE('',*,*,#46,.F.);
#56=ORIENTED_EDGE('',*,*,#48,.F.);
#57=ORIENTED_EDGE('',*,*,#49,.T.);
#58=ORIENTED_EDGE('',*,*,#50,.F.);
#59=ORIENTED_EDGE('',*,*,#49,.F.);
#60=ORIENTED_EDGE('',*,*,#48,.T.);
#61=ORIENTED_EDGE('',*,*,#51,.T.);
#62=ORIENTED_EDGE('',*,*,#50,.T.);
#63=ORIENTED_EDGE('',*,*,#47,.F.);
#64=ORIENTED_EDGE('',*,*,#52,.T.);
#65=ORIENTED_EDGE('',*,*,#51,.F.);
#66=ORIENTED_EDGE('',*,*,#52,.F.);
#67=CONICAL_SURFACE('',#87,2.4505,1.39626340159546);
#68=ADVANCED_FACE('',(#20),#67,.T.);
#69=ADVANCED_FACE('',(#21),#18,.T.);
#70=ADVANCED_FACE('',(#22),#16,.T.);
#71=ADVANCED_FACE('',(#23,#15),#17,.F.);
#72=ADVANCED_FACE('',(#24),#19,.T.);
#73=CLOSED_SHELL('',(#68,#69,#70,#71,#72));
#74=DERIVED_UNIT_ELEMENT(#76,1.);
#75=DERIVED_UNIT_ELEMENT(#142,-3.);
#76=(
MASS_UNIT()
NAMED_UNIT(*)
SI_UNIT(.KILO.,.GRAM.)
);
#77=DERIVED_UNIT((#74,#75));
#78=MEASURE_REPRESENTATION_ITEM('density measure',
POSITIVE_RATIO_MEASURE(7850.),#77);
#79=PROPERTY_DEFINITION_REPRESENTATION(#84,#81);
#80=PROPERTY_DEFINITION_REPRESENTATION(#85,#82);
#81=REPRESENTATION('material name',(#83),#139);
#82=REPRESENTATION('density',(#78),#139);
#83=DESCRIPTIVE_REPRESENTATION_ITEM('Acier','Acier');
#84=PROPERTY_DEFINITION('material property','material name',#149);
#85=PROPERTY_DEFINITION('material property','density of part',#149);
#86=AXIS2_PLACEMENT_3D('',#119,#96,#97);
#87=AXIS2_PLACEMENT_3D('',#120,#98,#99);
#88=AXIS2_PLACEMENT_3D('',#124,#101,#102);
#89=AXIS2_PLACEMENT_3D('',#125,#103,#104);
#90=AXIS2_PLACEMENT_3D('',#127,#105,#106);
#91=AXIS2_PLACEMENT_3D('',#130,#108,#109);
#92=AXIS2_PLACEMENT_3D('',#131,#110,#111);
#93=AXIS2_PLACEMENT_3D('',#132,#112,#113);
#94=AXIS2_PLACEMENT_3D('',#134,#114,#115);
#95=AXIS2_PLACEMENT_3D('',#135,#116,#117);
#96=DIRECTION('axis',(0.,0.,1.));
#97=DIRECTION('refdir',(1.,0.,0.));
#98=DIRECTION('center_axis',(-1.,0.,0.));
#99=DIRECTION('ref_axis',(0.,1.,0.));
#100=DIRECTION('',(-0.17364817766693,-0.984807753012208,-1.2060416625019E-16));
#101=DIRECTION('center_axis',(-1.,0.,0.));
#102=DIRECTION('ref_axis',(0.,1.,0.));
#103=DIRECTION('center_axis',(-1.,0.,0.));
#104=DIRECTION('ref_axis',(0.,-1.,0.));
#105=DIRECTION('center_axis',(-1.,0.,0.));
#106=DIRECTION('ref_axis',(0.,-1.,0.));
#107=DIRECTION('',(1.,0.,0.));
#108=DIRECTION('center_axis',(1.,0.,0.));
#109=DIRECTION('ref_axis',(0.,-1.,0.));
#110=DIRECTION('center_axis',(-1.,0.,0.));
#111=DIRECTION('ref_axis',(0.,-1.,0.));
#112=DIRECTION('center_axis',(1.,0.,0.));
#113=DIRECTION('ref_axis',(0.,1.,0.));
#114=DIRECTION('center_axis',(-1.,0.,0.));
#115=DIRECTION('ref_axis',(0.,1.,0.));
#116=DIRECTION('center_axis',(1.,0.,0.));
#117=DIRECTION('ref_axis',(0.,1.,0.));
#118=DIRECTION('',(-1.,0.,0.));
#119=CARTESIAN_POINT('',(0.,0.,0.));
#120=CARTESIAN_POINT('Origin',(31.4998060959992,-8.26636589424464E-16,11.0000000025066));
#121=CARTESIAN_POINT('',(31.9318953622252,-8.32667268468867E-16,11.0000000025066));
#122=CARTESIAN_POINT('',(31.4998060959992,-2.4505,11.0000000025066));
#123=CARTESIAN_POINT('',(31.4998060959992,-2.4505,11.0000000025066));
#124=CARTESIAN_POINT('Origin',(31.4998060959992,-8.26636589424464E-16,11.0000000025066));
#125=CARTESIAN_POINT('Origin',(3.74980609599915,-8.26636589424464E-16,11.0000000025066));
#126=CARTESIAN_POINT('',(2.04980609599915,1.5,11.0000000025066));
#127=CARTESIAN_POINT('Origin',(2.04980609599915,-8.26636589424464E-16,11.0000000025066));
#128=CARTESIAN_POINT('',(3.74980609599915,1.5,11.0000000025066));
#129=CARTESIAN_POINT('',(3.74980609599915,1.5,11.0000000025066));
#130=CARTESIAN_POINT('Origin',(3.74980609599915,-8.26636589424464E-16,11.0000000025066));
#131=CARTESIAN_POINT('Origin',(2.04980609599915,-8.32667268468867E-16,11.0000000025066));
#132=CARTESIAN_POINT('Origin',(3.74980609599915,-7.30767626792143E-16,11.0000000025066));
#133=CARTESIAN_POINT('',(3.74980609599915,-2.4505,11.0000000025066));
#134=CARTESIAN_POINT('Origin',(3.74980609599915,-8.26636589424464E-16,11.0000000025066));
#135=CARTESIAN_POINT('Origin',(6.99980609599915,-8.26636589424464E-16,11.0000000025066));
#136=CARTESIAN_POINT('',(6.99980609599915,-2.4505,11.0000000025066));
#137=UNCERTAINTY_MEASURE_WITH_UNIT(LENGTH_MEASURE(0.01),#141,
'DISTANCE_ACCURACY_VALUE',
'Maximum model space distance between geometric entities at asserted c
onnectivities');
#138=UNCERTAINTY_MEASURE_WITH_UNIT(LENGTH_MEASURE(0.01),#141,
'DISTANCE_ACCURACY_VALUE',
'Maximum model space distance between geometric entities at asserted c
onnectivities');
#139=(
GEOMETRIC_REPRESENTATION_CONTEXT(3)
GLOBAL_UNCERTAINTY_ASSIGNED_CONTEXT((#137))
GLOBAL_UNIT_ASSIGNED_CONTEXT((#141,#143,#144))
REPRESENTATION_CONTEXT('','3D')
);
#140=(
GEOMETRIC_REPRESENTATION_CONTEXT(3)
GLOBAL_UNCERTAINTY_ASSIGNED_CONTEXT((#138))
GLOBAL_UNIT_ASSIGNED_CONTEXT((#141,#143,#144))
REPRESENTATION_CONTEXT('','3D')
);
#141=(
LENGTH_UNIT()
NAMED_UNIT(*)
SI_UNIT(.MILLI.,.METRE.)
);
#142=(
LENGTH_UNIT()
NAMED_UNIT(*)
SI_UNIT($,.METRE.)
);
#143=(
NAMED_UNIT(*)
PLANE_ANGLE_UNIT()
SI_UNIT($,.RADIAN.)
);
#144=(
NAMED_UNIT(*)
SI_UNIT($,.STERADIAN.)
SOLID_ANGLE_UNIT()
);
#145=SHAPE_DEFINITION_REPRESENTATION(#146,#147);
#146=PRODUCT_DEFINITION_SHAPE('',$,#149);
#147=SHAPE_REPRESENTATION('',(#86),#139);
#148=PRODUCT_DEFINITION_CONTEXT('part definition',#153,'design');
#149=PRODUCT_DEFINITION('4 oip','4 oip v2',#150,#148);
#150=PRODUCT_DEFINITION_FORMATION('',$,#155);
#151=PRODUCT_RELATED_PRODUCT_CATEGORY('4 oip v2','4 oip v2',(#155));
#152=APPLICATION_PROTOCOL_DEFINITION('international standard',
'ap242_managed_model_based_3d_engineering',2011,#153);
#153=APPLICATION_CONTEXT('Managed model based 3d engineering');
#154=PRODUCT_CONTEXT('part definition',#153,'mechanical');
#155=PRODUCT('4 oip','4 oip v2',$,(#154));
#156=PRESENTATION_STYLE_ASSIGNMENT((#157));
#157=SURFACE_STYLE_USAGE(.BOTH.,#158);
#158=SURFACE_SIDE_STYLE('',(#159));
#159=SURFACE_STYLE_FILL_AREA(#160);
#160=FILL_AREA_STYLE('Acier - Satin\X\E9',(#161));
#161=FILL_AREA_STYLE_COLOUR('Acier - Satin\X\E9',#162);
#162=COLOUR_RGB('Acier - Satin\X\E9',0.627450980392157,0.627450980392157,
0.627450980392157);
ENDSEC;
END-ISO-10303-21;
