ISO-10303-21;
HEADER;
/* Generated by software containing ST-Developer
 * from STEP Tools, Inc. (www.steptools.com) 
 */

FILE_DESCRIPTION(
/* description */ ('',
'CAx-IF Rec.Pracs.---Representation and Presentation of Product Manufa
cturing Information (PMI)---4.0---2014-10-13'),
/* implementation_level */ '2;1');

FILE_NAME(
/* name */ '2 oip v0.step',
/* time_stamp */ '2024-12-06T10:42:41+01:00',
/* author */ (''),
/* organization */ (''),
/* preprocessor_version */ 'ST-DEVELOPER v20',
/* originating_system */ 'Autodesk Translation Framework v13.20.0.188',

/* authorisation */ '');

FILE_SCHEMA (('AP242_MANAGED_MODEL_BASED_3D_ENGINEERING_MIM_LF { 1 0 10303 442 1 1 4 }'));
ENDSEC;

DATA;
#10=MECHANICAL_DESIGN_GEOMETRIC_PRESENTATION_REPRESENTATION('',(#13),#438);
#11=SHAPE_REPRESENTATION_RELATIONSHIP('SRR','None',#445,#12);
#12=ADVANCED_BREP_SHAPE_REPRESENTATION('',(#14),#437);
#13=STYLED_ITEM('',(#454),#14);
#14=MANIFOLD_SOLID_BREP('Tige interne',#210);
#15=B_SPLINE_CURVE_WITH_KNOTS('',3,(#357,#358,#359,#360,#361,#362,#363,
#364,#365,#366,#367,#368,#369,#370,#371,#372,#373,#374,#375),
 .UNSPECIFIED.,.F.,.F.,(4,2,2,2,3,2,2,2,4),(-0.193181653756568,-0.144916950197124,
-0.0966522466376794,-0.0483261233188397,0.,0.0483261233188399,0.0966522466376798,
0.144916950197124,0.193181653756569),.UNSPECIFIED.);
#16=B_SPLINE_CURVE_WITH_KNOTS('',3,(#376,#377,#378,#379,#380,#381,#382,
#383,#384,#385,#386,#387,#388,#389,#390,#391,#392,#393),.UNSPECIFIED.,.F.,
 .F.,(4,2,2,2,2,2,2,2,4),(0.193181653756569,0.241446357316013,0.289711060875458,
0.338037184194298,0.386363307513137,0.434689430831977,0.483015554150817,
0.531280257710261,0.579544961269706),.UNSPECIFIED.);
#17=B_SPLINE_CURVE_WITH_KNOTS('',3,(#397,#398,#399,#400,#401,#402,#403,
#404,#405,#406,#407,#408,#409,#410,#411,#412,#413,#414,#415,#416,#417,#418,
#419,#420,#421,#422),.UNSPECIFIED.,.F.,.F.,(4,2,2,2,2,2,2,2,2,2,2,2,4),
(0.,0.0483261233188397,0.0966522466376794,0.144916950197124,0.193181653756569,
0.241446357316013,0.289711060875458,0.338037184194297,0.386363307513137,
0.434689430831977,0.483015554150817,0.531280257710261,0.579544961269706),
 .UNSPECIFIED.);
#18=B_SPLINE_CURVE_WITH_KNOTS('',3,(#423,#424,#425,#426,#427,#428,#429,
#430,#431,#432),.UNSPECIFIED.,.F.,.F.,(4,2,2,2,4),(0.579544961269706,0.62780966482915,
0.676074368388594,0.724400491707434,0.772726615026274),.UNSPECIFIED.);
#19=SPHERICAL_SURFACE('',#237,5.);
#20=FACE_BOUND('',#45,.T.);
#21=FACE_BOUND('',#47,.T.);
#22=FACE_BOUND('',#57,.T.);
#23=FACE_BOUND('',#58,.T.);
#24=PLANE('',#227);
#25=PLANE('',#229);
#26=PLANE('',#240);
#27=PLANE('',#241);
#28=PLANE('',#242);
#29=PLANE('',#243);
#30=PLANE('',#244);
#31=FACE_OUTER_BOUND('',#43,.T.);
#32=FACE_OUTER_BOUND('',#44,.T.);
#33=FACE_OUTER_BOUND('',#46,.T.);
#34=FACE_OUTER_BOUND('',#48,.T.);
#35=FACE_OUTER_BOUND('',#49,.T.);
#36=FACE_OUTER_BOUND('',#50,.T.);
#37=FACE_OUTER_BOUND('',#51,.T.);
#38=FACE_OUTER_BOUND('',#52,.T.);
#39=FACE_OUTER_BOUND('',#53,.T.);
#40=FACE_OUTER_BOUND('',#54,.T.);
#41=FACE_OUTER_BOUND('',#55,.T.);
#42=FACE_OUTER_BOUND('',#56,.T.);
#43=EDGE_LOOP('',(#140,#141,#142,#143));
#44=EDGE_LOOP('',(#144));
#45=EDGE_LOOP('',(#145));
#46=EDGE_LOOP('',(#146));
#47=EDGE_LOOP('',(#147));
#48=EDGE_LOOP('',(#148,#149,#150,#151,#152,#153,#154,#155,#156,#157,#158,
#159));
#49=EDGE_LOOP('',(#160,#161,#162));
#50=EDGE_LOOP('',(#163,#164,#165,#166));
#51=EDGE_LOOP('',(#167,#168,#169,#170));
#52=EDGE_LOOP('',(#171,#172,#173,#174));
#53=EDGE_LOOP('',(#175,#176));
#54=EDGE_LOOP('',(#177,#178,#179));
#55=EDGE_LOOP('',(#180,#181,#182,#183,#184,#185));
#56=EDGE_LOOP('',(#186,#187,#188,#189));
#57=EDGE_LOOP('',(#190,#191));
#58=EDGE_LOOP('',(#192,#193));
#59=LINE('',#312,#71);
#60=LINE('',#322,#72);
#61=LINE('',#326,#73);
#62=LINE('',#330,#74);
#63=LINE('',#334,#75);
#64=LINE('',#338,#76);
#65=LINE('',#346,#77);
#66=LINE('',#347,#78);
#67=LINE('',#349,#79);
#68=LINE('',#350,#80);
#69=LINE('',#395,#81);
#70=LINE('',#434,#82);
#71=VECTOR('',#253,2.);
#72=VECTOR('',#266,3.);
#73=VECTOR('',#269,10.);
#74=VECTOR('',#272,10.);
#75=VECTOR('',#275,10.);
#76=VECTOR('',#278,10.);
#77=VECTOR('',#289,10.);
#78=VECTOR('',#290,10.);
#79=VECTOR('',#293,10.);
#80=VECTOR('',#294,10.);
#81=VECTOR('',#303,1.5);
#82=VECTOR('',#306,3.);
#83=CIRCLE('',#225,2.);
#84=CIRCLE('',#226,2.);
#85=CIRCLE('',#228,3.);
#86=CIRCLE('',#230,3.);
#87=CIRCLE('',#232,3.);
#88=CIRCLE('',#233,3.);
#89=CIRCLE('',#234,3.);
#90=CIRCLE('',#235,3.);
#91=CIRCLE('',#236,3.);
#92=CIRCLE('',#238,3.);
#93=CIRCLE('',#239,5.);
#94=VERTEX_POINT('',#309);
#95=VERTEX_POINT('',#311);
#96=VERTEX_POINT('',#315);
#97=VERTEX_POINT('',#318);
#98=VERTEX_POINT('',#321);
#99=VERTEX_POINT('',#323);
#100=VERTEX_POINT('',#325);
#101=VERTEX_POINT('',#327);
#102=VERTEX_POINT('',#329);
#103=VERTEX_POINT('',#331);
#104=VERTEX_POINT('',#333);
#105=VERTEX_POINT('',#335);
#106=VERTEX_POINT('',#337);
#107=VERTEX_POINT('',#341);
#108=VERTEX_POINT('',#343);
#109=VERTEX_POINT('',#355);
#110=VERTEX_POINT('',#356);
#111=VERTEX_POINT('',#394);
#112=VERTEX_POINT('',#396);
#113=EDGE_CURVE('',#94,#94,#83,.T.);
#114=EDGE_CURVE('',#94,#95,#59,.T.);
#115=EDGE_CURVE('',#95,#95,#84,.T.);
#116=EDGE_CURVE('',#96,#96,#85,.T.);
#117=EDGE_CURVE('',#97,#97,#86,.T.);
#118=EDGE_CURVE('',#97,#98,#60,.T.);
#119=EDGE_CURVE('',#98,#99,#87,.T.);
#120=EDGE_CURVE('',#99,#100,#61,.T.);
#121=EDGE_CURVE('',#100,#101,#88,.T.);
#122=EDGE_CURVE('',#101,#102,#62,.T.);
#123=EDGE_CURVE('',#102,#103,#89,.T.);
#124=EDGE_CURVE('',#103,#104,#63,.T.);
#125=EDGE_CURVE('',#104,#105,#90,.T.);
#126=EDGE_CURVE('',#105,#106,#64,.T.);
#127=EDGE_CURVE('',#106,#98,#91,.T.);
#128=EDGE_CURVE('',#107,#107,#92,.T.);
#129=EDGE_CURVE('',#108,#107,#93,.T.);
#130=EDGE_CURVE('',#105,#100,#65,.T.);
#131=EDGE_CURVE('',#106,#99,#66,.T.);
#132=EDGE_CURVE('',#102,#103,#67,.T.);
#133=EDGE_CURVE('',#101,#104,#68,.T.);
#134=EDGE_CURVE('',#109,#110,#15,.T.);
#135=EDGE_CURVE('',#110,#109,#16,.T.);
#136=EDGE_CURVE('',#110,#111,#69,.T.);
#137=EDGE_CURVE('',#112,#111,#17,.T.);
#138=EDGE_CURVE('',#111,#112,#18,.T.);
#139=EDGE_CURVE('',#107,#96,#70,.T.);
#140=ORIENTED_EDGE('',*,*,#113,.F.);
#141=ORIENTED_EDGE('',*,*,#114,.T.);
#142=ORIENTED_EDGE('',*,*,#115,.T.);
#143=ORIENTED_EDGE('',*,*,#114,.F.);
#144=ORIENTED_EDGE('',*,*,#116,.F.);
#145=ORIENTED_EDGE('',*,*,#115,.F.);
#146=ORIENTED_EDGE('',*,*,#117,.F.);
#147=ORIENTED_EDGE('',*,*,#113,.T.);
#148=ORIENTED_EDGE('',*,*,#117,.T.);
#149=ORIENTED_EDGE('',*,*,#118,.T.);
#150=ORIENTED_EDGE('',*,*,#119,.T.);
#151=ORIENTED_EDGE('',*,*,#120,.T.);
#152=ORIENTED_EDGE('',*,*,#121,.T.);
#153=ORIENTED_EDGE('',*,*,#122,.T.);
#154=ORIENTED_EDGE('',*,*,#123,.T.);
#155=ORIENTED_EDGE('',*,*,#124,.T.);
#156=ORIENTED_EDGE('',*,*,#125,.T.);
#157=ORIENTED_EDGE('',*,*,#126,.T.);
#158=ORIENTED_EDGE('',*,*,#127,.T.);
#159=ORIENTED_EDGE('',*,*,#118,.F.);
#160=ORIENTED_EDGE('',*,*,#128,.T.);
#161=ORIENTED_EDGE('',*,*,#129,.F.);
#162=ORIENTED_EDGE('',*,*,#129,.T.);
#163=ORIENTED_EDGE('',*,*,#126,.F.);
#164=ORIENTED_EDGE('',*,*,#130,.T.);
#165=ORIENTED_EDGE('',*,*,#120,.F.);
#166=ORIENTED_EDGE('',*,*,#131,.F.);
#167=ORIENTED_EDGE('',*,*,#124,.F.);
#168=ORIENTED_EDGE('',*,*,#132,.F.);
#169=ORIENTED_EDGE('',*,*,#122,.F.);
#170=ORIENTED_EDGE('',*,*,#133,.T.);
#171=ORIENTED_EDGE('',*,*,#125,.F.);
#172=ORIENTED_EDGE('',*,*,#133,.F.);
#173=ORIENTED_EDGE('',*,*,#121,.F.);
#174=ORIENTED_EDGE('',*,*,#130,.F.);
#175=ORIENTED_EDGE('',*,*,#132,.T.);
#176=ORIENTED_EDGE('',*,*,#123,.F.);
#177=ORIENTED_EDGE('',*,*,#131,.T.);
#178=ORIENTED_EDGE('',*,*,#119,.F.);
#179=ORIENTED_EDGE('',*,*,#127,.F.);
#180=ORIENTED_EDGE('',*,*,#134,.F.);
#181=ORIENTED_EDGE('',*,*,#135,.F.);
#182=ORIENTED_EDGE('',*,*,#136,.T.);
#183=ORIENTED_EDGE('',*,*,#137,.F.);
#184=ORIENTED_EDGE('',*,*,#138,.F.);
#185=ORIENTED_EDGE('',*,*,#136,.F.);
#186=ORIENTED_EDGE('',*,*,#128,.F.);
#187=ORIENTED_EDGE('',*,*,#139,.T.);
#188=ORIENTED_EDGE('',*,*,#116,.T.);
#189=ORIENTED_EDGE('',*,*,#139,.F.);
#190=ORIENTED_EDGE('',*,*,#137,.T.);
#191=ORIENTED_EDGE('',*,*,#138,.T.);
#192=ORIENTED_EDGE('',*,*,#134,.T.);
#193=ORIENTED_EDGE('',*,*,#135,.T.);
#194=CYLINDRICAL_SURFACE('',#224,2.);
#195=CYLINDRICAL_SURFACE('',#231,3.);
#196=CYLINDRICAL_SURFACE('',#245,1.2645);
#197=CYLINDRICAL_SURFACE('',#246,3.);
#198=ADVANCED_FACE('',(#31),#194,.T.);
#199=ADVANCED_FACE('',(#32,#20),#24,.F.);
#200=ADVANCED_FACE('',(#33,#21),#25,.T.);
#201=ADVANCED_FACE('',(#34),#195,.T.);
#202=ADVANCED_FACE('',(#35),#19,.T.);
#203=ADVANCED_FACE('',(#36),#26,.F.);
#204=ADVANCED_FACE('',(#37),#27,.F.);
#205=ADVANCED_FACE('',(#38),#28,.F.);
#206=ADVANCED_FACE('',(#39),#29,.F.);
#207=ADVANCED_FACE('',(#40),#30,.F.);
#208=ADVANCED_FACE('',(#41),#196,.F.);
#209=ADVANCED_FACE('',(#42,#22,#23),#197,.T.);
#210=CLOSED_SHELL('',(#198,#199,#200,#201,#202,#203,#204,#205,#206,#207,
#208,#209));
#211=DERIVED_UNIT_ELEMENT(#213,1.);
#212=DERIVED_UNIT_ELEMENT(#440,-3.);
#213=(
MASS_UNIT()
NAMED_UNIT(*)
SI_UNIT(.KILO.,.GRAM.)
);
#214=DERIVED_UNIT((#211,#212));
#215=MEASURE_REPRESENTATION_ITEM('density measure',
POSITIVE_RATIO_MEASURE(7850.),#214);
#216=PROPERTY_DEFINITION_REPRESENTATION(#221,#218);
#217=PROPERTY_DEFINITION_REPRESENTATION(#222,#219);
#218=REPRESENTATION('material name',(#220),#437);
#219=REPRESENTATION('density',(#215),#437);
#220=DESCRIPTIVE_REPRESENTATION_ITEM('Acier','Acier');
#221=PROPERTY_DEFINITION('material property','material name',#447);
#222=PROPERTY_DEFINITION('material property','density of part',#447);
#223=AXIS2_PLACEMENT_3D('',#307,#247,#248);
#224=AXIS2_PLACEMENT_3D('',#308,#249,#250);
#225=AXIS2_PLACEMENT_3D('',#310,#251,#252);
#226=AXIS2_PLACEMENT_3D('',#313,#254,#255);
#227=AXIS2_PLACEMENT_3D('',#314,#256,#257);
#228=AXIS2_PLACEMENT_3D('',#316,#258,#259);
#229=AXIS2_PLACEMENT_3D('',#317,#260,#261);
#230=AXIS2_PLACEMENT_3D('',#319,#262,#263);
#231=AXIS2_PLACEMENT_3D('',#320,#264,#265);
#232=AXIS2_PLACEMENT_3D('',#324,#267,#268);
#233=AXIS2_PLACEMENT_3D('',#328,#270,#271);
#234=AXIS2_PLACEMENT_3D('',#332,#273,#274);
#235=AXIS2_PLACEMENT_3D('',#336,#276,#277);
#236=AXIS2_PLACEMENT_3D('',#339,#279,#280);
#237=AXIS2_PLACEMENT_3D('',#340,#281,#282);
#238=AXIS2_PLACEMENT_3D('',#342,#283,#284);
#239=AXIS2_PLACEMENT_3D('',#344,#285,#286);
#240=AXIS2_PLACEMENT_3D('',#345,#287,#288);
#241=AXIS2_PLACEMENT_3D('',#348,#291,#292);
#242=AXIS2_PLACEMENT_3D('',#351,#295,#296);
#243=AXIS2_PLACEMENT_3D('',#352,#297,#298);
#244=AXIS2_PLACEMENT_3D('',#353,#299,#300);
#245=AXIS2_PLACEMENT_3D('',#354,#301,#302);
#246=AXIS2_PLACEMENT_3D('',#433,#304,#305);
#247=DIRECTION('axis',(0.,0.,1.));
#248=DIRECTION('refdir',(1.,0.,0.));
#249=DIRECTION('center_axis',(0.,0.,1.));
#250=DIRECTION('ref_axis',(1.,0.,0.));
#251=DIRECTION('center_axis',(0.,0.,-1.));
#252=DIRECTION('ref_axis',(1.,0.,0.));
#253=DIRECTION('',(0.,0.,1.));
#254=DIRECTION('center_axis',(0.,0.,-1.));
#255=DIRECTION('ref_axis',(1.,0.,0.));
#256=DIRECTION('center_axis',(0.,0.,1.));
#257=DIRECTION('ref_axis',(1.,0.,0.));
#258=DIRECTION('center_axis',(0.,0.,1.));
#259=DIRECTION('ref_axis',(1.,0.,0.));
#260=DIRECTION('center_axis',(0.,0.,1.));
#261=DIRECTION('ref_axis',(1.,0.,0.));
#262=DIRECTION('center_axis',(0.,0.,-1.));
#263=DIRECTION('ref_axis',(1.,0.,0.));
#264=DIRECTION('center_axis',(0.,0.,1.));
#265=DIRECTION('ref_axis',(1.,0.,0.));
#266=DIRECTION('',(0.,0.,-1.));
#267=DIRECTION('center_axis',(0.,0.,1.));
#268=DIRECTION('ref_axis',(1.,0.,0.));
#269=DIRECTION('',(0.,0.,1.));
#270=DIRECTION('center_axis',(0.,0.,1.));
#271=DIRECTION('ref_axis',(1.,0.,0.));
#272=DIRECTION('',(0.,0.,-1.));
#273=DIRECTION('center_axis',(0.,0.,1.));
#274=DIRECTION('ref_axis',(1.,0.,0.));
#275=DIRECTION('',(0.,0.,1.));
#276=DIRECTION('center_axis',(0.,0.,1.));
#277=DIRECTION('ref_axis',(1.,0.,0.));
#278=DIRECTION('',(0.,0.,-1.));
#279=DIRECTION('center_axis',(0.,0.,1.));
#280=DIRECTION('ref_axis',(1.,0.,0.));
#281=DIRECTION('center_axis',(6.12323399573677E-17,0.,1.));
#282=DIRECTION('ref_axis',(1.,0.,0.));
#283=DIRECTION('center_axis',(0.,0.,1.));
#284=DIRECTION('ref_axis',(1.,0.,0.));
#285=DIRECTION('center_axis',(1.22464679914735E-16,-1.,0.));
#286=DIRECTION('ref_axis',(-1.,-1.22464679914735E-16,0.));
#287=DIRECTION('center_axis',(-1.,0.,0.));
#288=DIRECTION('ref_axis',(0.,-1.,0.));
#289=DIRECTION('',(0.,-1.,0.));
#290=DIRECTION('',(0.,-1.,0.));
#291=DIRECTION('center_axis',(1.,0.,0.));
#292=DIRECTION('ref_axis',(0.,1.,0.));
#293=DIRECTION('',(0.,1.,0.));
#294=DIRECTION('',(0.,1.,0.));
#295=DIRECTION('center_axis',(0.,0.,1.));
#296=DIRECTION('ref_axis',(1.,0.,0.));
#297=DIRECTION('center_axis',(0.,0.,1.));
#298=DIRECTION('ref_axis',(1.,0.,0.));
#299=DIRECTION('center_axis',(0.,0.,1.));
#300=DIRECTION('ref_axis',(1.,0.,0.));
#301=DIRECTION('center_axis',(-6.12323399573677E-17,1.,0.));
#302=DIRECTION('ref_axis',(0.,0.,-1.));
#303=DIRECTION('',(-6.12323399573677E-17,1.,0.));
#304=DIRECTION('center_axis',(0.,0.,1.));
#305=DIRECTION('ref_axis',(1.,0.,0.));
#306=DIRECTION('',(0.,0.,-1.));
#307=CARTESIAN_POINT('',(0.,0.,0.));
#308=CARTESIAN_POINT('Origin',(0.,0.,6.55));
#309=CARTESIAN_POINT('',(-2.,-2.44929359829471E-16,6.55));
#310=CARTESIAN_POINT('Origin',(0.,0.,6.55));
#311=CARTESIAN_POINT('',(-2.,-2.44929359829471E-16,12.55));
#312=CARTESIAN_POINT('',(-2.,-2.44929359829471E-16,6.55));
#313=CARTESIAN_POINT('Origin',(0.,0.,12.55));
#314=CARTESIAN_POINT('Origin',(0.,0.,12.55));
#315=CARTESIAN_POINT('',(-3.,-3.67394039744206E-16,12.55));
#316=CARTESIAN_POINT('Origin',(0.,0.,12.55));
#317=CARTESIAN_POINT('Origin',(0.,0.,6.55));
#318=CARTESIAN_POINT('',(-3.,-3.67394039744206E-16,6.55));
#319=CARTESIAN_POINT('Origin',(0.,0.,6.55));
#320=CARTESIAN_POINT('Origin',(0.,0.,-2.95));
#321=CARTESIAN_POINT('',(-3.,-3.67394039744206E-16,-2.95));
#322=CARTESIAN_POINT('',(-3.,-3.67394039744206E-16,-2.95));
#323=CARTESIAN_POINT('',(-0.500000007450581,-2.95803989029043,-2.95));
#324=CARTESIAN_POINT('Origin',(0.,0.,-2.95));
#325=CARTESIAN_POINT('',(-0.500000007450581,-2.95803989029043,-1.45));
#326=CARTESIAN_POINT('',(-0.500000007450581,-2.95803989029043,-2.95));
#327=CARTESIAN_POINT('',(0.500000007450581,-2.95803989029043,-1.45));
#328=CARTESIAN_POINT('Origin',(0.,0.,-1.45));
#329=CARTESIAN_POINT('',(0.500000007450581,-2.95803989029043,-2.95));
#330=CARTESIAN_POINT('',(0.500000007450581,-2.95803989029043,-2.95));
#331=CARTESIAN_POINT('',(0.500000007450581,2.95803989029043,-2.95));
#332=CARTESIAN_POINT('Origin',(0.,0.,-2.95));
#333=CARTESIAN_POINT('',(0.500000007450581,2.95803989029043,-1.45));
#334=CARTESIAN_POINT('',(0.500000007450581,2.95803989029043,-2.95));
#335=CARTESIAN_POINT('',(-0.500000007450581,2.95803989029043,-1.45));
#336=CARTESIAN_POINT('Origin',(0.,0.,-1.45));
#337=CARTESIAN_POINT('',(-0.500000007450581,2.95803989029043,-2.95));
#338=CARTESIAN_POINT('',(-0.500000007450581,2.95803989029043,-2.95));
#339=CARTESIAN_POINT('Origin',(0.,0.,-2.95));
#340=CARTESIAN_POINT('Origin',(0.,0.,33.05));
#341=CARTESIAN_POINT('',(-3.,-3.67394039744206E-16,37.05));
#342=CARTESIAN_POINT('Origin',(0.,0.,37.05));
#343=CARTESIAN_POINT('',(-3.06161699786838E-16,-3.74939945665464E-32,38.05));
#344=CARTESIAN_POINT('Origin',(0.,0.,33.05));
#345=CARTESIAN_POINT('Origin',(-0.500000007450581,3.50000005215406,-2.95));
#346=CARTESIAN_POINT('',(-0.500000007450581,3.50000005215406,-1.45));
#347=CARTESIAN_POINT('',(-0.500000007450581,1.75000002607703,-2.95));
#348=CARTESIAN_POINT('Origin',(0.500000007450581,-3.50000005215406,-2.95));
#349=CARTESIAN_POINT('',(0.500000007450581,-1.75000002607703,-2.95));
#350=CARTESIAN_POINT('',(0.500000007450581,-3.50000005215406,-1.45));
#351=CARTESIAN_POINT('Origin',(0.,0.,-1.45));
#352=CARTESIAN_POINT('Origin',(0.,0.,-2.95));
#353=CARTESIAN_POINT('Origin',(0.,0.,-2.95));
#354=CARTESIAN_POINT('Origin',(-2.02066721859313E-16,0.300000000000001,
31.3377244949341));
#355=CARTESIAN_POINT('',(3.12250225675825E-16,-3.,30.0732244949341));
#356=CARTESIAN_POINT('',(1.54856587752183E-16,-3.,32.6022244949341));
#357=CARTESIAN_POINT('Ctrl Pts',(6.93889390390723E-17,-3.,30.0732244949341));
#358=CARTESIAN_POINT('Ctrl Pts',(-0.160882345198148,-3.,30.0732244949341));
#359=CARTESIAN_POINT('Ctrl Pts',(-0.331164876802542,-2.98582747990602,30.1057840188637));
#360=CARTESIAN_POINT('Ctrl Pts',(-0.642178169455918,-2.93469642548447,30.2354746800684));
#361=CARTESIAN_POINT('Ctrl Pts',(-0.783050789409592,-2.89833996446103,30.3325022347229));
#362=CARTESIAN_POINT('Ctrl Pts',(-1.00536362353961,-2.82892586745977,30.5548150688529));
#363=CARTESIAN_POINT('Ctrl Pts',(-1.10228460279987,-2.79104227156269,30.6956352549005));
#364=CARTESIAN_POINT('Ctrl Pts',(-1.23189284756703,-2.73630932121717,31.0064398960956));
#365=CARTESIAN_POINT('Ctrl Pts',(-1.2645,-2.72048520488533,31.1766374172046));
#366=CARTESIAN_POINT('Ctrl Pts',(-1.2645,-2.72048520488533,31.3377244949341));
#367=CARTESIAN_POINT('Ctrl Pts',(-1.2645,-2.72048520488533,31.4988115726635));
#368=CARTESIAN_POINT('Ctrl Pts',(-1.23189284756703,-2.73630932121717,31.6690090937726));
#369=CARTESIAN_POINT('Ctrl Pts',(-1.10228460279987,-2.79104227156269,31.9798137349677));
#370=CARTESIAN_POINT('Ctrl Pts',(-1.00536362353961,-2.82892586745977,32.1206339210153));
#371=CARTESIAN_POINT('Ctrl Pts',(-0.783050789409592,-2.89833996446103,32.3429467551453));
#372=CARTESIAN_POINT('Ctrl Pts',(-0.642178169455918,-2.93469642548447,32.4399743097998));
#373=CARTESIAN_POINT('Ctrl Pts',(-0.331164876802543,-2.98582747990602,32.5696649710045));
#374=CARTESIAN_POINT('Ctrl Pts',(-0.160882345198148,-3.,32.6022244949341));
#375=CARTESIAN_POINT('Ctrl Pts',(-2.08166817117217E-16,-3.,32.6022244949341));
#376=CARTESIAN_POINT('Ctrl Pts',(-4.16333634234434E-16,-3.,32.6022244949341));
#377=CARTESIAN_POINT('Ctrl Pts',(0.160882345198148,-3.,32.6022244949341));
#378=CARTESIAN_POINT('Ctrl Pts',(0.331164876802542,-2.98582747990602,32.5696649710045));
#379=CARTESIAN_POINT('Ctrl Pts',(0.642178169455918,-2.93469642548447,32.4399743097998));
#380=CARTESIAN_POINT('Ctrl Pts',(0.783050789409592,-2.89833996446103,32.3429467551453));
#381=CARTESIAN_POINT('Ctrl Pts',(1.00536362353961,-2.82892586745977,32.1206339210153));
#382=CARTESIAN_POINT('Ctrl Pts',(1.10228460279987,-2.79104227156269,31.9798137349677));
#383=CARTESIAN_POINT('Ctrl Pts',(1.23189284756703,-2.73630932121717,31.6690090937726));
#384=CARTESIAN_POINT('Ctrl Pts',(1.2645,-2.72048520488533,31.4988115726635));
#385=CARTESIAN_POINT('Ctrl Pts',(1.2645,-2.72048520488533,31.1766374172046));
#386=CARTESIAN_POINT('Ctrl Pts',(1.23189284756703,-2.73630932121717,31.0064398960956));
#387=CARTESIAN_POINT('Ctrl Pts',(1.10228460279987,-2.79104227156269,30.6956352549005));
#388=CARTESIAN_POINT('Ctrl Pts',(1.00536362353961,-2.82892586745977,30.5548150688529));
#389=CARTESIAN_POINT('Ctrl Pts',(0.783050789409592,-2.89833996446103,30.3325022347229));
#390=CARTESIAN_POINT('Ctrl Pts',(0.642178169455916,-2.93469642548447,30.2354746800684));
#391=CARTESIAN_POINT('Ctrl Pts',(0.331164876802543,-2.98582747990602,30.1057840188637));
#392=CARTESIAN_POINT('Ctrl Pts',(0.160882345198149,-3.,30.0732244949341));
#393=CARTESIAN_POINT('Ctrl Pts',(4.16333634234434E-16,-3.,30.0732244949341));
#394=CARTESIAN_POINT('',(-2.12537451992023E-16,3.,32.6022244949341));
#395=CARTESIAN_POINT('',(-4.72101341071305E-17,0.300000000000001,32.6022244949341));
#396=CARTESIAN_POINT('',(-1.2645,2.72048520488533,31.3377244949341));
#397=CARTESIAN_POINT('Ctrl Pts',(-1.2645,2.72048520488533,31.3377244949341));
#398=CARTESIAN_POINT('Ctrl Pts',(-1.2645,2.72048520488533,31.1766374172046));
#399=CARTESIAN_POINT('Ctrl Pts',(-1.23189284756703,2.73630932121717,31.0064398960956));
#400=CARTESIAN_POINT('Ctrl Pts',(-1.10228460279987,2.79104227156269,30.6956352549005));
#401=CARTESIAN_POINT('Ctrl Pts',(-1.00536362353961,2.82892586745977,30.5548150688529));
#402=CARTESIAN_POINT('Ctrl Pts',(-0.783050789409593,2.89833996446103,30.3325022347229));
#403=CARTESIAN_POINT('Ctrl Pts',(-0.642178169455918,2.93469642548447,30.2354746800684));
#404=CARTESIAN_POINT('Ctrl Pts',(-0.331164876802543,2.98582747990602,30.1057840188637));
#405=CARTESIAN_POINT('Ctrl Pts',(-0.160882345198149,3.,30.0732244949341));
#406=CARTESIAN_POINT('Ctrl Pts',(0.160882345198148,3.,30.0732244949341));
#407=CARTESIAN_POINT('Ctrl Pts',(0.331164876802544,2.98582747990602,30.1057840188637));
#408=CARTESIAN_POINT('Ctrl Pts',(0.642178169455918,2.93469642548447,30.2354746800684));
#409=CARTESIAN_POINT('Ctrl Pts',(0.783050789409592,2.89833996446103,30.3325022347229));
#410=CARTESIAN_POINT('Ctrl Pts',(1.00536362353961,2.82892586745977,30.5548150688529));
#411=CARTESIAN_POINT('Ctrl Pts',(1.10228460279987,2.79104227156269,30.6956352549005));
#412=CARTESIAN_POINT('Ctrl Pts',(1.23189284756703,2.73630932121717,31.0064398960956));
#413=CARTESIAN_POINT('Ctrl Pts',(1.2645,2.72048520488533,31.1766374172046));
#414=CARTESIAN_POINT('Ctrl Pts',(1.2645,2.72048520488533,31.4988115726635));
#415=CARTESIAN_POINT('Ctrl Pts',(1.23189284756703,2.73630932121717,31.6690090937726));
#416=CARTESIAN_POINT('Ctrl Pts',(1.10228460279987,2.79104227156269,31.9798137349677));
#417=CARTESIAN_POINT('Ctrl Pts',(1.00536362353961,2.82892586745977,32.1206339210152));
#418=CARTESIAN_POINT('Ctrl Pts',(0.783050789409592,2.89833996446103,32.3429467551453));
#419=CARTESIAN_POINT('Ctrl Pts',(0.642178169455918,2.93469642548447,32.4399743097998));
#420=CARTESIAN_POINT('Ctrl Pts',(0.331164876802542,2.98582747990602,32.5696649710045));
#421=CARTESIAN_POINT('Ctrl Pts',(0.160882345198148,3.,32.6022244949341));
#422=CARTESIAN_POINT('Ctrl Pts',(-1.38777878078145E-16,3.,32.6022244949341));
#423=CARTESIAN_POINT('Ctrl Pts',(-1.73472347597681E-16,3.,32.6022244949341));
#424=CARTESIAN_POINT('Ctrl Pts',(-0.160882345198148,3.,32.6022244949341));
#425=CARTESIAN_POINT('Ctrl Pts',(-0.331164876802542,2.98582747990602,32.5696649710045));
#426=CARTESIAN_POINT('Ctrl Pts',(-0.642178169455918,2.93469642548447,32.4399743097998));
#427=CARTESIAN_POINT('Ctrl Pts',(-0.783050789409593,2.89833996446103,32.3429467551453));
#428=CARTESIAN_POINT('Ctrl Pts',(-1.00536362353961,2.82892586745977,32.1206339210153));
#429=CARTESIAN_POINT('Ctrl Pts',(-1.10228460279987,2.79104227156269,31.9798137349677));
#430=CARTESIAN_POINT('Ctrl Pts',(-1.23189284756703,2.73630932121717,31.6690090937726));
#431=CARTESIAN_POINT('Ctrl Pts',(-1.2645,2.72048520488533,31.4988115726635));
#432=CARTESIAN_POINT('Ctrl Pts',(-1.2645,2.72048520488533,31.3377244949341));
#433=CARTESIAN_POINT('Origin',(0.,0.,-2.95));
#434=CARTESIAN_POINT('',(-3.,-3.67394039744206E-16,-2.95));
#435=UNCERTAINTY_MEASURE_WITH_UNIT(LENGTH_MEASURE(0.01),#439,
'DISTANCE_ACCURACY_VALUE',
'Maximum model space distance between geometric entities at asserted c
onnectivities');
#436=UNCERTAINTY_MEASURE_WITH_UNIT(LENGTH_MEASURE(0.01),#439,
'DISTANCE_ACCURACY_VALUE',
'Maximum model space distance between geometric entities at asserted c
onnectivities');
#437=(
GEOMETRIC_REPRESENTATION_CONTEXT(3)
GLOBAL_UNCERTAINTY_ASSIGNED_CONTEXT((#435))
GLOBAL_UNIT_ASSIGNED_CONTEXT((#439,#441,#442))
REPRESENTATION_CONTEXT('','3D')
);
#438=(
GEOMETRIC_REPRESENTATION_CONTEXT(3)
GLOBAL_UNCERTAINTY_ASSIGNED_CONTEXT((#436))
GLOBAL_UNIT_ASSIGNED_CONTEXT((#439,#441,#442))
REPRESENTATION_CONTEXT('','3D')
);
#439=(
LENGTH_UNIT()
NAMED_UNIT(*)
SI_UNIT(.MILLI.,.METRE.)
);
#440=(
LENGTH_UNIT()
NAMED_UNIT(*)
SI_UNIT($,.METRE.)
);
#441=(
NAMED_UNIT(*)
PLANE_ANGLE_UNIT()
SI_UNIT($,.RADIAN.)
);
#442=(
NAMED_UNIT(*)
SI_UNIT($,.STERADIAN.)
SOLID_ANGLE_UNIT()
);
#443=SHAPE_DEFINITION_REPRESENTATION(#444,#445);
#444=PRODUCT_DEFINITION_SHAPE('',$,#447);
#445=SHAPE_REPRESENTATION('',(#223),#437);
#446=PRODUCT_DEFINITION_CONTEXT('part definition',#451,'design');
#447=PRODUCT_DEFINITION('2 oip','2 oip v2',#448,#446);
#448=PRODUCT_DEFINITION_FORMATION('',$,#453);
#449=PRODUCT_RELATED_PRODUCT_CATEGORY('2 oip v2','2 oip v2',(#453));
#450=APPLICATION_PROTOCOL_DEFINITION('international standard',
'ap242_managed_model_based_3d_engineering',2011,#451);
#451=APPLICATION_CONTEXT('Managed model based 3d engineering');
#452=PRODUCT_CONTEXT('part definition',#451,'mechanical');
#453=PRODUCT('2 oip','2 oip v2',$,(#452));
#454=PRESENTATION_STYLE_ASSIGNMENT((#455));
#455=SURFACE_STYLE_USAGE(.BOTH.,#456);
#456=SURFACE_SIDE_STYLE('',(#457));
#457=SURFACE_STYLE_FILL_AREA(#458);
#458=FILL_AREA_STYLE('Acier - Satin\X\E9',(#459));
#459=FILL_AREA_STYLE_COLOUR('Acier - Satin\X\E9',#460);
#460=COLOUR_RGB('Acier - Satin\X\E9',0.627450980392157,0.627450980392157,
0.627450980392157);
ENDSEC;
END-ISO-10303-21;
