ISO-10303-21;
HEADER;
/* Generated by software containing ST-Developer
 * from STEP Tools, Inc. (www.steptools.com) 
 */

FILE_DESCRIPTION(
/* description */ ('',
'CAx-IF Rec.Pracs.---Representation and Presentation of Product Manufa
cturing Information (PMI)---4.0---2014-10-13'),
/* implementation_level */ '2;1');

FILE_NAME(
/* name */ '1b oip v0.step',
/* time_stamp */ '2024-12-06T10:42:00+01:00',
/* author */ (''),
/* organization */ (''),
/* preprocessor_version */ 'ST-DEVELOPER v20',
/* originating_system */ 'Autodesk Translation Framework v13.20.0.188',

/* authorisation */ '');

FILE_SCHEMA (('AP242_MANAGED_MODEL_BASED_3D_ENGINEERING_MIM_LF { 1 0 10303 442 1 1 4 }'));
ENDSEC;

DATA;
#10=MECHANICAL_DESIGN_GEOMETRIC_PRESENTATION_REPRESENTATION('',(#13),#130);
#11=SHAPE_REPRESENTATION_RELATIONSHIP('SRR','None',#137,#12);
#12=ADVANCED_BREP_SHAPE_REPRESENTATION('',(#14),#129);
#13=STYLED_ITEM('',(#146),#14);
#14=MANIFOLD_SOLID_BREP('Tige rotation 2',#67);
#15=PLANE('',#88);
#16=CYLINDRICAL_SURFACE('',#87,1.4635);
#17=FACE_OUTER_BOUND('',#21,.T.);
#18=FACE_OUTER_BOUND('',#22,.T.);
#19=FACE_OUTER_BOUND('',#23,.T.);
#20=FACE_OUTER_BOUND('',#24,.T.);
#21=EDGE_LOOP('',(#47,#48,#49,#50));
#22=EDGE_LOOP('',(#51,#52,#53,#54));
#23=EDGE_LOOP('',(#55,#56,#57,#58,#59));
#24=EDGE_LOOP('',(#60));
#25=LINE('',#116,#28);
#26=LINE('',#122,#29);
#27=LINE('',#125,#30);
#28=VECTOR('',#95,1.4635);
#29=VECTOR('',#102,1.3635);
#30=VECTOR('',#107,1.5);
#31=CIRCLE('',#82,1.4635);
#32=CIRCLE('',#83,1.4635);
#33=CIRCLE('',#85,1.2635);
#34=CIRCLE('',#86,1.4635);
#35=VERTEX_POINT('',#112);
#36=VERTEX_POINT('',#113);
#37=VERTEX_POINT('',#115);
#38=VERTEX_POINT('',#119);
#39=VERTEX_POINT('',#121);
#40=EDGE_CURVE('',#35,#36,#31,.F.);
#41=EDGE_CURVE('',#35,#37,#25,.T.);
#42=EDGE_CURVE('',#36,#35,#32,.F.);
#43=EDGE_CURVE('',#38,#38,#33,.T.);
#44=EDGE_CURVE('',#38,#39,#26,.T.);
#45=EDGE_CURVE('',#39,#39,#34,.T.);
#46=EDGE_CURVE('',#39,#36,#27,.T.);
#47=ORIENTED_EDGE('',*,*,#40,.F.);
#48=ORIENTED_EDGE('',*,*,#41,.T.);
#49=ORIENTED_EDGE('',*,*,#41,.F.);
#50=ORIENTED_EDGE('',*,*,#42,.F.);
#51=ORIENTED_EDGE('',*,*,#43,.T.);
#52=ORIENTED_EDGE('',*,*,#44,.T.);
#53=ORIENTED_EDGE('',*,*,#45,.T.);
#54=ORIENTED_EDGE('',*,*,#44,.F.);
#55=ORIENTED_EDGE('',*,*,#45,.F.);
#56=ORIENTED_EDGE('',*,*,#46,.T.);
#57=ORIENTED_EDGE('',*,*,#42,.T.);
#58=ORIENTED_EDGE('',*,*,#40,.T.);
#59=ORIENTED_EDGE('',*,*,#46,.F.);
#60=ORIENTED_EDGE('',*,*,#43,.F.);
#61=CONICAL_SURFACE('',#81,1.4635,0.785398163397448);
#62=CONICAL_SURFACE('',#84,1.3635,0.321750554396642);
#63=ADVANCED_FACE('',(#17),#61,.F.);
#64=ADVANCED_FACE('',(#18),#62,.T.);
#65=ADVANCED_FACE('',(#19),#16,.T.);
#66=ADVANCED_FACE('',(#20),#15,.T.);
#67=CLOSED_SHELL('',(#63,#64,#65,#66));
#68=DERIVED_UNIT_ELEMENT(#70,1.);
#69=DERIVED_UNIT_ELEMENT(#132,-3.);
#70=(
MASS_UNIT()
NAMED_UNIT(*)
SI_UNIT(.KILO.,.GRAM.)
);
#71=DERIVED_UNIT((#68,#69));
#72=MEASURE_REPRESENTATION_ITEM('density measure',
POSITIVE_RATIO_MEASURE(7850.),#71);
#73=PROPERTY_DEFINITION_REPRESENTATION(#78,#75);
#74=PROPERTY_DEFINITION_REPRESENTATION(#79,#76);
#75=REPRESENTATION('material name',(#77),#129);
#76=REPRESENTATION('density',(#72),#129);
#77=DESCRIPTIVE_REPRESENTATION_ITEM('Acier','Acier');
#78=PROPERTY_DEFINITION('material property','material name',#139);
#79=PROPERTY_DEFINITION('material property','density of part',#139);
#80=AXIS2_PLACEMENT_3D('',#110,#89,#90);
#81=AXIS2_PLACEMENT_3D('',#111,#91,#92);
#82=AXIS2_PLACEMENT_3D('',#114,#93,#94);
#83=AXIS2_PLACEMENT_3D('',#117,#96,#97);
#84=AXIS2_PLACEMENT_3D('',#118,#98,#99);
#85=AXIS2_PLACEMENT_3D('',#120,#100,#101);
#86=AXIS2_PLACEMENT_3D('',#123,#103,#104);
#87=AXIS2_PLACEMENT_3D('',#124,#105,#106);
#88=AXIS2_PLACEMENT_3D('',#126,#108,#109);
#89=DIRECTION('axis',(0.,0.,1.));
#90=DIRECTION('refdir',(1.,0.,0.));
#91=DIRECTION('center_axis',(0.,1.,0.));
#92=DIRECTION('ref_axis',(-1.,0.,0.));
#93=DIRECTION('center_axis',(0.,1.,0.));
#94=DIRECTION('ref_axis',(1.,0.,0.));
#95=DIRECTION('',(-0.707106781186547,-0.707106781186548,-8.65956056235493E-17));
#96=DIRECTION('center_axis',(0.,1.,0.));
#97=DIRECTION('ref_axis',(1.,0.,0.));
#98=DIRECTION('center_axis',(0.,1.,0.));
#99=DIRECTION('ref_axis',(1.,0.,0.));
#100=DIRECTION('center_axis',(0.,1.,0.));
#101=DIRECTION('ref_axis',(1.,0.,0.));
#102=DIRECTION('',(-0.316227766016837,0.948683298050514,-3.87267321454038E-17));
#103=DIRECTION('center_axis',(0.,-1.,0.));
#104=DIRECTION('ref_axis',(1.,0.,0.));
#105=DIRECTION('center_axis',(0.,-1.,0.));
#106=DIRECTION('ref_axis',(1.,0.,0.));
#107=DIRECTION('',(0.,1.,0.));
#108=DIRECTION('center_axis',(0.,-1.,0.));
#109=DIRECTION('ref_axis',(1.,0.,0.));
#110=CARTESIAN_POINT('',(0.,0.,0.));
#111=CARTESIAN_POINT('Origin',(0.,0.,31.3894804859865));
#112=CARTESIAN_POINT('',(1.4635,0.,31.3894804859865));
#113=CARTESIAN_POINT('',(-1.4635,0.,31.3894804859865));
#114=CARTESIAN_POINT('Origin',(0.,0.,31.3894804859865));
#115=CARTESIAN_POINT('',(0.,-1.4635,31.3894804859865));
#116=CARTESIAN_POINT('',(1.4635,0.,31.3894804859865));
#117=CARTESIAN_POINT('Origin',(0.,0.,31.3894804859865));
#118=CARTESIAN_POINT('Origin',(0.,-22.2,31.3894804859865));
#119=CARTESIAN_POINT('',(-1.2635,-22.5,31.3894804859865));
#120=CARTESIAN_POINT('Origin',(0.,-22.5,31.3894804859865));
#121=CARTESIAN_POINT('',(-1.4635,-21.9,31.3894804859865));
#122=CARTESIAN_POINT('',(-1.3635,-22.2,31.3894804859865));
#123=CARTESIAN_POINT('Origin',(0.,-21.9,31.3894804859865));
#124=CARTESIAN_POINT('Origin',(0.,0.,31.3894804859865));
#125=CARTESIAN_POINT('',(-1.4635,0.,31.3894804859865));
#126=CARTESIAN_POINT('Origin',(0.,-22.5,31.3894804859865));
#127=UNCERTAINTY_MEASURE_WITH_UNIT(LENGTH_MEASURE(0.01),#131,
'DISTANCE_ACCURACY_VALUE',
'Maximum model space distance between geometric entities at asserted c
onnectivities');
#128=UNCERTAINTY_MEASURE_WITH_UNIT(LENGTH_MEASURE(0.01),#131,
'DISTANCE_ACCURACY_VALUE',
'Maximum model space distance between geometric entities at asserted c
onnectivities');
#129=(
GEOMETRIC_REPRESENTATION_CONTEXT(3)
GLOBAL_UNCERTAINTY_ASSIGNED_CONTEXT((#127))
GLOBAL_UNIT_ASSIGNED_CONTEXT((#131,#133,#134))
REPRESENTATION_CONTEXT('','3D')
);
#130=(
GEOMETRIC_REPRESENTATION_CONTEXT(3)
GLOBAL_UNCERTAINTY_ASSIGNED_CONTEXT((#128))
GLOBAL_UNIT_ASSIGNED_CONTEXT((#131,#133,#134))
REPRESENTATION_CONTEXT('','3D')
);
#131=(
LENGTH_UNIT()
NAMED_UNIT(*)
SI_UNIT(.MILLI.,.METRE.)
);
#132=(
LENGTH_UNIT()
NAMED_UNIT(*)
SI_UNIT($,.METRE.)
);
#133=(
NAMED_UNIT(*)
PLANE_ANGLE_UNIT()
SI_UNIT($,.RADIAN.)
);
#134=(
NAMED_UNIT(*)
SI_UNIT($,.STERADIAN.)
SOLID_ANGLE_UNIT()
);
#135=SHAPE_DEFINITION_REPRESENTATION(#136,#137);
#136=PRODUCT_DEFINITION_SHAPE('',$,#139);
#137=SHAPE_REPRESENTATION('',(#80),#129);
#138=PRODUCT_DEFINITION_CONTEXT('part definition',#143,'design');
#139=PRODUCT_DEFINITION('1b oip','1b oip v1',#140,#138);
#140=PRODUCT_DEFINITION_FORMATION('',$,#145);
#141=PRODUCT_RELATED_PRODUCT_CATEGORY('1b oip v1','1b oip v1',(#145));
#142=APPLICATION_PROTOCOL_DEFINITION('international standard',
'ap242_managed_model_based_3d_engineering',2011,#143);
#143=APPLICATION_CONTEXT('Managed model based 3d engineering');
#144=PRODUCT_CONTEXT('part definition',#143,'mechanical');
#145=PRODUCT('1b oip','1b oip v1',$,(#144));
#146=PRESENTATION_STYLE_ASSIGNMENT((#147));
#147=SURFACE_STYLE_USAGE(.BOTH.,#148);
#148=SURFACE_SIDE_STYLE('',(#149));
#149=SURFACE_STYLE_FILL_AREA(#150);
#150=FILL_AREA_STYLE('Acier - Satin\X\E9',(#151));
#151=FILL_AREA_STYLE_COLOUR('Acier - Satin\X\E9',#152);
#152=COLOUR_RGB('Acier - Satin\X\E9',0.627450980392157,0.627450980392157,
0.627450980392157);
ENDSEC;
END-ISO-10303-21;
