ISO-10303-21;
HEADER;
/* Generated by software containing ST-Developer
 * from STEP Tools, Inc. (www.steptools.com) 
 */

FILE_DESCRIPTION(
/* description */ ('Alibre Inc.'),
/* implementation_level */ '2;1');

FILE_NAME(
/* name */ 'export-7D69A0F6-78DE-4302-A75B-64073ABA70A4',
/* time_stamp */ '2024-08-17T19:19:40+02:00',
/* author */ (''),
/* organization */ (''),
/* preprocessor_version */ 'ST-DEVELOPER v17',
/* originating_system */ 'Alibre',
/* authorisation */ '');

FILE_SCHEMA (('CONFIG_CONTROL_DESIGN'));
ENDSEC;

DATA;
#10=MECHANICAL_CONTEXT('detailed design',#18,'mechanical');
#11=PRODUCT_RELATED_PRODUCT_CATEGORY('detail','',(#98));
#12=CC_DESIGN_SECURITY_CLASSIFICATION(#14,(#97));
#13=SECURITY_CLASSIFICATION_LEVEL('unclassified');
#14=SECURITY_CLASSIFICATION('name','Security for version',#13);
#15=SHAPE_DEFINITION_REPRESENTATION(#16,#508);
#16=PRODUCT_DEFINITION_SHAPE('','DefinitionDesc',#96);
#17=APPLICATION_PROTOCOL_DEFINITION('AP definition status',
'config_control_design',1994,#18);
#18=APPLICATION_CONTEXT(
'control the configuration of three dimensional design');
#19=DESIGN_CONTEXT('detailed design',#18,'design');
#20=PERSON_AND_ORGANIZATION_ROLE('creator');
#21=PERSON_AND_ORGANIZATION_ROLE('classification_officer');
#22=PERSON_AND_ORGANIZATION_ROLE('creator');
#23=PERSON_AND_ORGANIZATION_ROLE('design_supplier');
#24=PERSON_AND_ORGANIZATION_ROLE('design_owner');
#25=CC_DESIGN_PERSON_AND_ORGANIZATION_ASSIGNMENT(#57,#20,(#96));
#26=CC_DESIGN_PERSON_AND_ORGANIZATION_ASSIGNMENT(#60,#21,(#14));
#27=CC_DESIGN_PERSON_AND_ORGANIZATION_ASSIGNMENT(#61,#22,(#97));
#28=CC_DESIGN_PERSON_AND_ORGANIZATION_ASSIGNMENT(#62,#23,(#97));
#29=CC_DESIGN_PERSON_AND_ORGANIZATION_ASSIGNMENT(#63,#24,(#98));
#30=DATE_TIME_ROLE('creation_date');
#31=DATE_TIME_ROLE('classification_date');
#32=CC_DESIGN_DATE_AND_TIME_ASSIGNMENT(#86,#30,(#96));
#33=CC_DESIGN_DATE_AND_TIME_ASSIGNMENT(#89,#31,(#14));
#34=CC_DESIGN_APPROVAL(#93,(#96));
#35=CC_DESIGN_APPROVAL(#94,(#97));
#36=CC_DESIGN_APPROVAL(#95,(#14));
#37=APPROVAL_PERSON_ORGANIZATION(#56,#93,#64);
#38=APPROVAL_PERSON_ORGANIZATION(#58,#94,#65);
#39=APPROVAL_PERSON_ORGANIZATION(#59,#95,#66);
#40=ORGANIZATION('DEFINITION_APPROVEDBY_ORG_ID',
'DEFINITION_APPROVEDBY_ORG_NAME','DEFINITION_APPROVEDBY_ORG_DESCR');
#41=ORGANIZATION('DEF_CREATOR_ORG_ID','DEF_CREATOR_ORG_NAME',
'DEF_CREATOR_ORG_DESCR');
#42=ORGANIZATION('APPROVEDBY_ORG_ID','APPROVEDBY_ORG_NAME',
'APPROVEDBY_ORG_DESCR');
#43=ORGANIZATION('SECURITY_APPROVEDBY_ORG_ID',
'SECURITY_APPROVEDBY_ORG_NAME','SECURITY_APPROVEDBY_ORG_DESCR');
#44=ORGANIZATION('CLASSOFFICER_ORG_ID','CLASSOFFICER_ORG_NAME',
'CLASSOFFICER_ORG_DESCR');
#45=ORGANIZATION('CREATOR_ORG_ID','CREATOR_ORG_NAME',
'CREATOR_ORG_DESCR');
#46=ORGANIZATION('SUPPLIER_ORG_ID','SUPPLIER_ORG_NAME',
'SUPPLIER_ORG_DESCR');
#47=ORGANIZATION('OWNER_ORG_ID','OWNER_ORG_NAME','OWNER_ORG_DESCR');
#48=PERSON('DEFINITION_approverID','DEFINITION_APPROVEDBY_LASTNAME',
'DEFINITION_APPROVEDBY_FIRSTNAME',$,$,$);
#49=PERSON('DEF_createrID','DEF_CREATOR_LASTNAME',
'DEF_CREATOR_FIRSTNAME',$,$,$);
#50=PERSON('approverID','APPROVEDBY_LASTNAME','APPROVEDBY_FIRSTNAME',$,
$,$);
#51=PERSON('SECURITY_approverID','SECURITY_LASTNAME',
'SECURITY_APPROVEDBY_FIRSTNAME',$,$,$);
#52=PERSON('classifierID','CLASSOFFICER_LASTNAME',
'CLASSOFFICER_FIRSTNAME',$,$,$);
#53=PERSON('createrID','CREATOR_LASTNAME','CREATOR_FIRSTNAME',$,$,$);
#54=PERSON('supplierID','SUPPLIER_LASTNAME','SUPPLIER_FIRSTNAME',$,$,$);
#55=PERSON('ownerID','OWNER_LASTNAME','OWNER_FIRSTNAME',$,$,$);
#56=PERSON_AND_ORGANIZATION(#48,#40);
#57=PERSON_AND_ORGANIZATION(#49,#41);
#58=PERSON_AND_ORGANIZATION(#50,#42);
#59=PERSON_AND_ORGANIZATION(#51,#43);
#60=PERSON_AND_ORGANIZATION(#52,#44);
#61=PERSON_AND_ORGANIZATION(#53,#45);
#62=PERSON_AND_ORGANIZATION(#54,#46);
#63=PERSON_AND_ORGANIZATION(#55,#47);
#64=APPROVAL_ROLE('definition_approval');
#65=APPROVAL_ROLE('version_approval');
#66=APPROVAL_ROLE('security_approval');
#67=APPROVAL_DATE_TIME(#85,#93);
#68=APPROVAL_DATE_TIME(#87,#94);
#69=APPROVAL_DATE_TIME(#88,#95);
#70=COORDINATED_UNIVERSAL_TIME_OFFSET(2,0,.AHEAD.);
#71=COORDINATED_UNIVERSAL_TIME_OFFSET(2,0,.AHEAD.);
#72=COORDINATED_UNIVERSAL_TIME_OFFSET(2,0,.AHEAD.);
#73=COORDINATED_UNIVERSAL_TIME_OFFSET(2,0,.AHEAD.);
#74=COORDINATED_UNIVERSAL_TIME_OFFSET(2,0,.AHEAD.);
#75=LOCAL_TIME(10,7,40.,#70);
#76=LOCAL_TIME(10,7,40.,#71);
#77=LOCAL_TIME(10,7,40.,#72);
#78=LOCAL_TIME(10,7,40.,#73);
#79=LOCAL_TIME(10,7,40.,#74);
#80=CALENDAR_DATE(2024,17,8);
#81=CALENDAR_DATE(2024,17,8);
#82=CALENDAR_DATE(2024,17,8);
#83=CALENDAR_DATE(2024,17,8);
#84=CALENDAR_DATE(2024,17,8);
#85=DATE_AND_TIME(#80,#75);
#86=DATE_AND_TIME(#81,#76);
#87=DATE_AND_TIME(#82,#77);
#88=DATE_AND_TIME(#83,#78);
#89=DATE_AND_TIME(#84,#79);
#90=APPROVAL_STATUS('not_yet_approved');
#91=APPROVAL_STATUS('not_yet_approved');
#92=APPROVAL_STATUS('not_yet_approved');
#93=APPROVAL(#90,'defintion approval');
#94=APPROVAL(#91,'version approval');
#95=APPROVAL(#92,'security approval');
#96=PRODUCT_DEFINITION('DefinitionID','DefinitionDesc',#97,#19);
#97=PRODUCT_DEFINITION_FORMATION_WITH_SPECIFIED_SOURCE(
'PRODUCT_VERSION_ID','PRODUCT_VERSION_DESCR',#98,.NOT_KNOWN.);
#98=PRODUCT('','Support_nozzle_1400','',(#10));
#99=(
LENGTH_UNIT()
NAMED_UNIT(*)
SI_UNIT(.MILLI.,.METRE.)
);
#100=(
NAMED_UNIT(*)
PLANE_ANGLE_UNIT()
SI_UNIT($,.RADIAN.)
);
#101=(
NAMED_UNIT(*)
SI_UNIT($,.STERADIAN.)
SOLID_ANGLE_UNIT()
);
#102=UNCERTAINTY_MEASURE_WITH_UNIT(LENGTH_MEASURE(1.E-6),#99,
'DISTANCE_ACCURACY_VALUE',
'Maximum model space distance between geometric entities at asserted c
onnectivities');
#103=(
GEOMETRIC_REPRESENTATION_CONTEXT(3)
GLOBAL_UNCERTAINTY_ASSIGNED_CONTEXT((#102))
GLOBAL_UNIT_ASSIGNED_CONTEXT((#101,#100,#99))
REPRESENTATION_CONTEXT('ID1','3D')
);
#104=VECTOR('',#351,1.);
#105=VECTOR('',#354,1.);
#106=VECTOR('',#358,1.);
#107=VECTOR('',#359,1.);
#108=VECTOR('',#360,1.);
#109=VECTOR('',#361,1.);
#110=VECTOR('',#363,1.);
#111=VECTOR('',#364,1.);
#112=VECTOR('',#377,1.);
#113=VECTOR('',#378,1.);
#114=VECTOR('',#380,1.);
#115=VECTOR('',#381,1.);
#116=VECTOR('',#383,1.);
#117=VECTOR('',#384,1.);
#118=LINE('',#458,#104);
#119=LINE('',#463,#105);
#120=LINE('',#467,#106);
#121=LINE('',#469,#107);
#122=LINE('',#471,#108);
#123=LINE('',#473,#109);
#124=LINE('',#476,#110);
#125=LINE('',#478,#111);
#126=LINE('',#489,#112);
#127=LINE('',#491,#113);
#128=LINE('',#494,#114);
#129=LINE('',#496,#115);
#130=LINE('',#498,#116);
#131=LINE('',#499,#117);
#132=B_SPLINE_CURVE_WITH_KNOTS('',3,(#399,#400,#401,#402,#403,#404,#405,
#406,#407,#408,#409,#410,#411,#412,#413,#414,#415,#416,#417,#418,#419,#420,
#421,#422,#423,#424,#425,#426,#427,#428,#429,#430,#431,#432,#433,#434,#435,
#436,#437,#438,#439,#440,#441,#442,#443,#444,#445,#446,#447,#448,#449,#450,
#451,#452,#453,#454,#455,#456),.UNSPECIFIED.,.T.,.U.,(4,2,2,2,2,2,2,2,2,
2,2,2,2,2,2,2,2,2,2,2,2,2,2,2,2,2,2,2,4),(0.,0.0839047540537986,0.167809508107597,
0.335619016215194,0.671238032430389,0.9584863055516,1.1021104421122,1.24573457867281,
1.38935871523342,1.53298285179402,1.82023112491523,2.15585014113043,2.32365964923802,
2.40756440329182,2.49146915734562,2.57537391139942,2.65927866545322,2.82708817356081,
3.16270718977601,3.44995546289722,3.59357959945783,3.73720373601843,3.88082787257904,
4.02445200913964,4.31170028226085,4.64731929847605,4.81512880658364,4.89903356063744,
4.98293831469124),.UNSPECIFIED.);
#133=PLANE('',#315);
#134=PLANE('',#319);
#135=PLANE('',#323);
#136=PLANE('',#324);
#137=PLANE('',#327);
#138=PLANE('',#331);
#139=PLANE('',#332);
#140=PLANE('',#333);
#141=PLANE('',#334);
#142=VERTEX_POINT('',#388);
#143=VERTEX_POINT('',#390);
#144=VERTEX_POINT('',#394);
#145=VERTEX_POINT('',#396);
#146=VERTEX_POINT('',#457);
#147=VERTEX_POINT('',#459);
#148=VERTEX_POINT('',#460);
#149=VERTEX_POINT('',#462);
#150=VERTEX_POINT('',#464);
#151=VERTEX_POINT('',#468);
#152=VERTEX_POINT('',#470);
#153=VERTEX_POINT('',#472);
#154=VERTEX_POINT('',#474);
#155=VERTEX_POINT('',#477);
#156=VERTEX_POINT('',#481);
#157=VERTEX_POINT('',#484);
#158=VERTEX_POINT('',#487);
#159=VERTEX_POINT('',#490);
#160=VERTEX_POINT('',#493);
#161=VERTEX_POINT('',#495);
#162=CIRCLE('',#313,2.458734);
#163=CIRCLE('',#314,2.458734);
#164=CIRCLE('',#317,2.458734);
#165=CIRCLE('',#318,2.458734);
#166=CIRCLE('',#321,7.25);
#167=CIRCLE('',#322,7.25);
#168=CIRCLE('',#326,7.);
#169=CIRCLE('',#328,4.);
#170=CIRCLE('',#330,4.);
#171=EDGE_CURVE('',#142,#142,#162,.T.);
#172=EDGE_CURVE('',#143,#143,#163,.T.);
#173=EDGE_CURVE('',#144,#144,#164,.T.);
#174=EDGE_CURVE('',#145,#145,#165,.T.);
#175=EDGE_CURVE('',#146,#146,#132,.T.);
#176=EDGE_CURVE('',#147,#148,#118,.T.);
#177=EDGE_CURVE('',#149,#147,#166,.T.);
#178=EDGE_CURVE('',#150,#149,#119,.T.);
#179=EDGE_CURVE('',#148,#150,#167,.T.);
#180=EDGE_CURVE('',#150,#151,#120,.T.);
#181=EDGE_CURVE('',#152,#151,#121,.T.);
#182=EDGE_CURVE('',#153,#152,#122,.T.);
#183=EDGE_CURVE('',#153,#154,#123,.T.);
#184=EDGE_CURVE('',#154,#148,#120,.T.);
#185=EDGE_CURVE('',#155,#149,#124,.T.);
#186=EDGE_CURVE('',#151,#155,#125,.T.);
#187=EDGE_CURVE('',#156,#156,#168,.T.);
#188=EDGE_CURVE('',#157,#157,#169,.T.);
#189=EDGE_CURVE('',#158,#158,#170,.T.);
#190=EDGE_CURVE('',#159,#155,#126,.T.);
#191=EDGE_CURVE('',#152,#159,#127,.T.);
#192=EDGE_CURVE('',#147,#160,#124,.T.);
#193=EDGE_CURVE('',#161,#160,#128,.T.);
#194=EDGE_CURVE('',#159,#161,#129,.T.);
#195=EDGE_CURVE('',#160,#154,#130,.T.);
#196=EDGE_CURVE('',#161,#153,#131,.T.);
#197=ORIENTED_EDGE('',*,*,#171,.F.);
#198=ORIENTED_EDGE('',*,*,#172,.F.);
#199=ORIENTED_EDGE('',*,*,#171,.T.);
#200=ORIENTED_EDGE('',*,*,#173,.F.);
#201=ORIENTED_EDGE('',*,*,#174,.F.);
#202=ORIENTED_EDGE('',*,*,#173,.T.);
#203=ORIENTED_EDGE('',*,*,#175,.F.);
#204=ORIENTED_EDGE('',*,*,#176,.F.);
#205=ORIENTED_EDGE('',*,*,#177,.F.);
#206=ORIENTED_EDGE('',*,*,#178,.F.);
#207=ORIENTED_EDGE('',*,*,#179,.F.);
#208=ORIENTED_EDGE('',*,*,#179,.T.);
#209=ORIENTED_EDGE('',*,*,#180,.T.);
#210=ORIENTED_EDGE('',*,*,#181,.F.);
#211=ORIENTED_EDGE('',*,*,#182,.F.);
#212=ORIENTED_EDGE('',*,*,#183,.T.);
#213=ORIENTED_EDGE('',*,*,#184,.T.);
#214=ORIENTED_EDGE('',*,*,#172,.T.);
#215=ORIENTED_EDGE('',*,*,#178,.T.);
#216=ORIENTED_EDGE('',*,*,#185,.F.);
#217=ORIENTED_EDGE('',*,*,#186,.F.);
#218=ORIENTED_EDGE('',*,*,#180,.F.);
#219=ORIENTED_EDGE('',*,*,#175,.T.);
#220=ORIENTED_EDGE('',*,*,#187,.F.);
#221=ORIENTED_EDGE('',*,*,#188,.F.);
#222=ORIENTED_EDGE('',*,*,#187,.T.);
#223=ORIENTED_EDGE('',*,*,#188,.T.);
#224=ORIENTED_EDGE('',*,*,#189,.F.);
#225=ORIENTED_EDGE('',*,*,#186,.T.);
#226=ORIENTED_EDGE('',*,*,#190,.F.);
#227=ORIENTED_EDGE('',*,*,#191,.F.);
#228=ORIENTED_EDGE('',*,*,#181,.T.);
#229=ORIENTED_EDGE('',*,*,#177,.T.);
#230=ORIENTED_EDGE('',*,*,#192,.T.);
#231=ORIENTED_EDGE('',*,*,#193,.F.);
#232=ORIENTED_EDGE('',*,*,#194,.F.);
#233=ORIENTED_EDGE('',*,*,#190,.T.);
#234=ORIENTED_EDGE('',*,*,#185,.T.);
#235=ORIENTED_EDGE('',*,*,#195,.T.);
#236=ORIENTED_EDGE('',*,*,#183,.F.);
#237=ORIENTED_EDGE('',*,*,#196,.F.);
#238=ORIENTED_EDGE('',*,*,#193,.T.);
#239=ORIENTED_EDGE('',*,*,#174,.T.);
#240=ORIENTED_EDGE('',*,*,#176,.T.);
#241=ORIENTED_EDGE('',*,*,#184,.F.);
#242=ORIENTED_EDGE('',*,*,#195,.F.);
#243=ORIENTED_EDGE('',*,*,#192,.F.);
#244=ORIENTED_EDGE('',*,*,#189,.T.);
#245=ORIENTED_EDGE('',*,*,#196,.T.);
#246=ORIENTED_EDGE('',*,*,#182,.T.);
#247=ORIENTED_EDGE('',*,*,#191,.T.);
#248=ORIENTED_EDGE('',*,*,#194,.T.);
#249=EDGE_LOOP('',(#197));
#250=EDGE_LOOP('',(#198));
#251=EDGE_LOOP('',(#199));
#252=EDGE_LOOP('',(#200));
#253=EDGE_LOOP('',(#201));
#254=EDGE_LOOP('',(#202));
#255=EDGE_LOOP('',(#203));
#256=EDGE_LOOP('',(#204,#205,#206,#207));
#257=EDGE_LOOP('',(#208,#209,#210,#211,#212,#213));
#258=EDGE_LOOP('',(#214));
#259=EDGE_LOOP('',(#215,#216,#217,#218));
#260=EDGE_LOOP('',(#219));
#261=EDGE_LOOP('',(#220));
#262=EDGE_LOOP('',(#221));
#263=EDGE_LOOP('',(#222));
#264=EDGE_LOOP('',(#223));
#265=EDGE_LOOP('',(#224));
#266=EDGE_LOOP('',(#225,#226,#227,#228));
#267=EDGE_LOOP('',(#229,#230,#231,#232,#233,#234));
#268=EDGE_LOOP('',(#235,#236,#237,#238));
#269=EDGE_LOOP('',(#239));
#270=EDGE_LOOP('',(#240,#241,#242,#243));
#271=EDGE_LOOP('',(#244));
#272=EDGE_LOOP('',(#245,#246,#247,#248));
#273=FACE_BOUND('',#249,.T.);
#274=FACE_BOUND('',#250,.T.);
#275=FACE_BOUND('',#251,.T.);
#276=FACE_BOUND('',#252,.T.);
#277=FACE_BOUND('',#253,.T.);
#278=FACE_BOUND('',#254,.T.);
#279=FACE_BOUND('',#255,.T.);
#280=FACE_BOUND('',#256,.T.);
#281=FACE_BOUND('',#257,.T.);
#282=FACE_BOUND('',#258,.T.);
#283=FACE_BOUND('',#259,.T.);
#284=FACE_BOUND('',#260,.T.);
#285=FACE_BOUND('',#261,.T.);
#286=FACE_BOUND('',#262,.T.);
#287=FACE_BOUND('',#263,.T.);
#288=FACE_BOUND('',#264,.T.);
#289=FACE_BOUND('',#265,.T.);
#290=FACE_BOUND('',#266,.T.);
#291=FACE_BOUND('',#267,.T.);
#292=FACE_BOUND('',#268,.T.);
#293=FACE_BOUND('',#269,.T.);
#294=FACE_BOUND('',#270,.T.);
#295=FACE_BOUND('',#271,.T.);
#296=FACE_BOUND('',#272,.T.);
#297=ADVANCED_FACE('',(#273,#274),#501,.F.);
#298=ADVANCED_FACE('',(#275),#133,.F.);
#299=ADVANCED_FACE('',(#276,#277),#502,.F.);
#300=ADVANCED_FACE('',(#278),#134,.F.);
#301=ADVANCED_FACE('',(#279,#280),#503,.F.);
#302=ADVANCED_FACE('',(#281),#135,.T.);
#303=ADVANCED_FACE('',(#282,#283),#136,.T.);
#304=ADVANCED_FACE('',(#284,#285),#504,.F.);
#305=ADVANCED_FACE('',(#286,#287),#137,.F.);
#306=ADVANCED_FACE('',(#288,#289),#505,.F.);
#307=ADVANCED_FACE('',(#290),#138,.T.);
#308=ADVANCED_FACE('',(#291),#139,.T.);
#309=ADVANCED_FACE('',(#292),#140,.T.);
#310=ADVANCED_FACE('',(#293,#294),#136,.T.);
#311=ADVANCED_FACE('',(#295,#296),#141,.F.);
#312=AXIS2_PLACEMENT_3D('',#386,#335,#336);
#313=AXIS2_PLACEMENT_3D('',#387,#337,#338);
#314=AXIS2_PLACEMENT_3D('',#389,#339,#340);
#315=AXIS2_PLACEMENT_3D('',#391,#341,$);
#316=AXIS2_PLACEMENT_3D('',#392,#342,#343);
#317=AXIS2_PLACEMENT_3D('',#393,#344,#345);
#318=AXIS2_PLACEMENT_3D('',#395,#346,#347);
#319=AXIS2_PLACEMENT_3D('',#397,#348,$);
#320=AXIS2_PLACEMENT_3D('',#398,#349,#350);
#321=AXIS2_PLACEMENT_3D('',#461,#352,#353);
#322=AXIS2_PLACEMENT_3D('',#465,#355,#356);
#323=AXIS2_PLACEMENT_3D('',#466,#357,$);
#324=AXIS2_PLACEMENT_3D('',#475,#362,$);
#325=AXIS2_PLACEMENT_3D('',#479,#365,#366);
#326=AXIS2_PLACEMENT_3D('',#480,#367,#368);
#327=AXIS2_PLACEMENT_3D('',#482,#369,$);
#328=AXIS2_PLACEMENT_3D('',#483,#370,#371);
#329=AXIS2_PLACEMENT_3D('',#485,#372,#373);
#330=AXIS2_PLACEMENT_3D('',#486,#374,#375);
#331=AXIS2_PLACEMENT_3D('',#488,#376,$);
#332=AXIS2_PLACEMENT_3D('',#492,#379,$);
#333=AXIS2_PLACEMENT_3D('',#497,#382,$);
#334=AXIS2_PLACEMENT_3D('',#500,#385,$);
#335=DIRECTION('',(0.,0.,-1.));
#336=DIRECTION('',(0.,2.458734,0.));
#337=DIRECTION('',(0.,0.,1.));
#338=DIRECTION('',(0.,2.458734,0.));
#339=DIRECTION('',(0.,0.,-1.));
#340=DIRECTION('',(0.,2.458734,0.));
#341=DIRECTION('',(0.,0.,-1.));
#342=DIRECTION('',(0.,0.,-1.));
#343=DIRECTION('',(0.,2.458734,0.));
#344=DIRECTION('',(0.,0.,1.));
#345=DIRECTION('',(0.,2.458734,0.));
#346=DIRECTION('',(0.,0.,-1.));
#347=DIRECTION('',(0.,2.458734,0.));
#348=DIRECTION('',(0.,0.,-1.));
#349=DIRECTION('',(0.,-1.,0.));
#350=DIRECTION('',(7.25,0.,0.));
#351=DIRECTION('',(0.,1.,0.));
#352=DIRECTION('',(1.64346021921044E-32,1.,0.));
#353=DIRECTION('',(7.25,0.,0.));
#354=DIRECTION('',(0.,-1.,0.));
#355=DIRECTION('',(0.,-1.,0.));
#356=DIRECTION('',(7.25,0.,0.));
#357=DIRECTION('',(0.,1.,0.));
#358=DIRECTION('',(1.,0.,0.));
#359=DIRECTION('',(0.,0.,1.));
#360=DIRECTION('',(1.,0.,0.));
#361=DIRECTION('',(0.,0.,1.));
#362=DIRECTION('',(0.,0.,1.));
#363=DIRECTION('',(-1.,1.64346021921044E-32,0.));
#364=DIRECTION('',(0.,-1.,0.));
#365=DIRECTION('',(0.,0.,-1.));
#366=DIRECTION('',(0.,7.,0.));
#367=DIRECTION('',(0.,0.,1.));
#368=DIRECTION('',(0.,7.,0.));
#369=DIRECTION('',(0.,0.,-1.));
#370=DIRECTION('',(0.,0.,1.));
#371=DIRECTION('',(0.,4.,0.));
#372=DIRECTION('',(0.,0.,-1.));
#373=DIRECTION('',(0.,4.,0.));
#374=DIRECTION('',(0.,0.,1.));
#375=DIRECTION('',(0.,4.,0.));
#376=DIRECTION('',(1.,0.,0.));
#377=DIRECTION('',(0.,0.,1.));
#378=DIRECTION('',(0.,-1.,0.));
#379=DIRECTION('',(-1.64346021921044E-32,-1.,0.));
#380=DIRECTION('',(0.,0.,1.));
#381=DIRECTION('',(-1.,1.64346021921044E-32,0.));
#382=DIRECTION('',(-1.,-4.44089209850063E-16,0.));
#383=DIRECTION('',(-4.44089209850063E-16,1.,0.));
#384=DIRECTION('',(-4.44089209850063E-16,1.,0.));
#385=DIRECTION('',(0.,0.,1.));
#386=CARTESIAN_POINT('',(52.5,10.,32.));
#387=CARTESIAN_POINT('',(52.5,10.,22.));
#388=CARTESIAN_POINT('',(52.5,12.458734,22.));
#389=CARTESIAN_POINT('',(52.5,10.,32.));
#390=CARTESIAN_POINT('',(52.5,12.458734,32.));
#391=CARTESIAN_POINT('',(52.5,10.,22.));
#392=CARTESIAN_POINT('',(7.5,10.,32.));
#393=CARTESIAN_POINT('',(7.5,10.,22.));
#394=CARTESIAN_POINT('',(7.5,12.458734,22.));
#395=CARTESIAN_POINT('',(7.5,10.,32.));
#396=CARTESIAN_POINT('',(7.5,12.458734,32.));
#397=CARTESIAN_POINT('',(7.5,10.,22.));
#398=CARTESIAN_POINT('',(30.,20.,32.));
#399=CARTESIAN_POINT('',(37.,10.,30.1125413911823));
#400=CARTESIAN_POINT('',(37.,10.2796825135127,30.1125413911823));
#401=CARTESIAN_POINT('',(36.9840768551362,10.5271744748394,30.0523208178548));
#402=CARTESIAN_POINT('',(36.9329847952072,10.994467736903,29.8776183692538));
#403=CARTESIAN_POINT('',(36.8974430658561,11.2139609581952,29.7624225389612));
#404=CARTESIAN_POINT('',(36.7625939676184,11.8604358138738,29.3721617447501));
#405=CARTESIAN_POINT('',(36.6357694677535,12.2723212142298,29.0554607491803));
#406=CARTESIAN_POINT('',(36.1257224569375,13.5018630536226,28.0499347140339));
#407=CARTESIAN_POINT('',(35.6097621870121,14.2897327495996,27.319294314946));
#408=CARTESIAN_POINT('',(34.3848566873216,15.51463824929,26.1747767884827));
#409=CARTESIAN_POINT('',(33.6447128968246,16.0487770753874,25.6644492845217));
#410=CARTESIAN_POINT('',(32.3601894167921,16.6066192021779,25.1292528028276));
#411=CARTESIAN_POINT('',(31.9032807854956,16.7534013077514,24.987850060936));
#412=CARTESIAN_POINT('',(30.9625765773343,16.9501333302868,24.7981828089517));
#413=CARTESIAN_POINT('',(30.4787471218687,17.,24.75));
#414=CARTESIAN_POINT('',(29.5212528781313,17.,24.75));
#415=CARTESIAN_POINT('',(29.0374234226657,16.9501333302868,24.7981828089517));
#416=CARTESIAN_POINT('',(28.0967192145044,16.7534013077514,24.987850060936));
#417=CARTESIAN_POINT('',(27.6398105832079,16.6066192021779,25.1292528028276));
#418=CARTESIAN_POINT('',(26.3552871031754,16.0487770753874,25.6644492845217));
#419=CARTESIAN_POINT('',(25.6151433126784,15.51463824929,26.1747767884827));
#420=CARTESIAN_POINT('',(24.3902378129879,14.2897327495996,27.319294314946));
#421=CARTESIAN_POINT('',(23.8742775430625,13.5018630536226,28.0499347140339));
#422=CARTESIAN_POINT('',(23.3642305322465,12.2723212142298,29.0554607491803));
#423=CARTESIAN_POINT('',(23.2374060323816,11.8604358138738,29.3721617447501));
#424=CARTESIAN_POINT('',(23.1025569341439,11.2139609581952,29.7624225389612));
#425=CARTESIAN_POINT('',(23.0670152047928,10.994467736903,29.8776183692538));
#426=CARTESIAN_POINT('',(23.0159231448638,10.5271744748394,30.0523208178548));
#427=CARTESIAN_POINT('',(23.,10.2796825135127,30.1125413911823));
#428=CARTESIAN_POINT('',(23.,9.72031748648734,30.1125413911823));
#429=CARTESIAN_POINT('',(23.0159231448638,9.4728255251606,30.0523208178548));
#430=CARTESIAN_POINT('',(23.0670152047928,9.005532263097,29.8776183692538));
#431=CARTESIAN_POINT('',(23.1025569341439,8.78603904180477,29.7624225389612));
#432=CARTESIAN_POINT('',(23.2374060323816,8.13956418612618,29.3721617447501));
#433=CARTESIAN_POINT('',(23.3642305322465,7.72767878577021,29.0554607491803));
#434=CARTESIAN_POINT('',(23.8742775430625,6.49813694637743,28.0499347140339));
#435=CARTESIAN_POINT('',(24.3902378129879,5.7102672504004,27.319294314946));
#436=CARTESIAN_POINT('',(25.6151433126784,4.48536175070998,26.1747767884827));
#437=CARTESIAN_POINT('',(26.3552871031754,3.95122292461262,25.6644492845217));
#438=CARTESIAN_POINT('',(27.6398105832079,3.39338079782205,25.1292528028276));
#439=CARTESIAN_POINT('',(28.0967192145044,3.24659869224862,24.987850060936));
#440=CARTESIAN_POINT('',(29.0374234226657,3.04986666971315,24.7981828089517));
#441=CARTESIAN_POINT('',(29.5212528781313,3.,24.75));
#442=CARTESIAN_POINT('',(30.4787471218687,3.,24.75));
#443=CARTESIAN_POINT('',(30.9625765773343,3.04986666971315,24.7981828089517));
#444=CARTESIAN_POINT('',(31.9032807854956,3.24659869224862,24.987850060936));
#445=CARTESIAN_POINT('',(32.3601894167921,3.39338079782205,25.1292528028276));
#446=CARTESIAN_POINT('',(33.6447128968246,3.95122292461262,25.6644492845217));
#447=CARTESIAN_POINT('',(34.3848566873216,4.48536175070998,26.1747767884827));
#448=CARTESIAN_POINT('',(35.6097621870121,5.7102672504004,27.319294314946));
#449=CARTESIAN_POINT('',(36.1257224569375,6.49813694637745,28.0499347140339));
#450=CARTESIAN_POINT('',(36.6357694677535,7.72767878577022,29.0554607491803));
#451=CARTESIAN_POINT('',(36.7625939676184,8.13956418612619,29.3721617447501));
#452=CARTESIAN_POINT('',(36.8974430658561,8.78603904180477,29.7624225389612));
#453=CARTESIAN_POINT('',(36.9329847952072,9.005532263097,29.8776183692538));
#454=CARTESIAN_POINT('',(36.9840768551362,9.4728255251606,30.0523208178548));
#455=CARTESIAN_POINT('',(37.,9.72031748648734,30.1125413911823));
#456=CARTESIAN_POINT('',(37.,10.,30.1125413911823));
#457=CARTESIAN_POINT('',(37.,10.,30.1125413911823));
#458=CARTESIAN_POINT('',(22.75,20.,32.));
#459=CARTESIAN_POINT('',(22.75,0.,32.));
#460=CARTESIAN_POINT('',(22.75,20.,32.));
#461=CARTESIAN_POINT('',(30.,0.,32.));
#462=CARTESIAN_POINT('',(37.25,0.,32.));
#463=CARTESIAN_POINT('',(37.25,20.,32.));
#464=CARTESIAN_POINT('',(37.25,20.,32.));
#465=CARTESIAN_POINT('',(30.,20.,32.));
#466=CARTESIAN_POINT('',(30.,20.,0.));
#467=CARTESIAN_POINT('',(-8.88178419700125E-15,20.,32.));
#468=CARTESIAN_POINT('',(60.,20.,32.));
#469=CARTESIAN_POINT('',(60.,20.,0.));
#470=CARTESIAN_POINT('',(60.,20.,0.));
#471=CARTESIAN_POINT('',(-8.88178419700125E-15,20.,0.));
#472=CARTESIAN_POINT('',(-8.88178419700125E-15,20.,0.));
#473=CARTESIAN_POINT('',(-8.88178419700125E-15,20.,0.));
#474=CARTESIAN_POINT('',(-8.88178419700125E-15,20.,32.));
#475=CARTESIAN_POINT('',(30.,10.,32.));
#476=CARTESIAN_POINT('',(60.,-9.86076131526265E-31,32.));
#477=CARTESIAN_POINT('',(60.,0.,32.));
#478=CARTESIAN_POINT('',(60.,20.,32.));
#479=CARTESIAN_POINT('',(30.,10.,32.));
#480=CARTESIAN_POINT('',(30.,10.,5.));
#481=CARTESIAN_POINT('',(30.,17.,5.));
#482=CARTESIAN_POINT('',(30.,10.,5.));
#483=CARTESIAN_POINT('',(30.,10.,5.));
#484=CARTESIAN_POINT('',(30.,6.,5.));
#485=CARTESIAN_POINT('',(30.,10.,32.));
#486=CARTESIAN_POINT('',(30.,10.,0.));
#487=CARTESIAN_POINT('',(30.,14.,0.));
#488=CARTESIAN_POINT('',(60.,10.,0.));
#489=CARTESIAN_POINT('',(60.,0.,0.));
#490=CARTESIAN_POINT('',(60.,0.,0.));
#491=CARTESIAN_POINT('',(60.,20.,0.));
#492=CARTESIAN_POINT('',(30.,-4.93038065763132E-31,0.));
#493=CARTESIAN_POINT('',(0.,0.,32.));
#494=CARTESIAN_POINT('',(0.,0.,0.));
#495=CARTESIAN_POINT('',(0.,0.,0.));
#496=CARTESIAN_POINT('',(60.,-9.86076131526265E-31,0.));
#497=CARTESIAN_POINT('',(-4.44089209850063E-15,10.,0.));
#498=CARTESIAN_POINT('',(0.,0.,32.));
#499=CARTESIAN_POINT('',(0.,0.,0.));
#500=CARTESIAN_POINT('',(30.,10.,0.));
#501=CYLINDRICAL_SURFACE('',#312,2.458734);
#502=CYLINDRICAL_SURFACE('',#316,2.458734);
#503=CYLINDRICAL_SURFACE('',#320,7.25);
#504=CYLINDRICAL_SURFACE('',#325,7.);
#505=CYLINDRICAL_SURFACE('',#329,4.);
#506=CLOSED_SHELL('',(#297,#298,#299,#300,#301,#302,#303,#304,#305,#306,
#307,#308,#309,#310,#311));
#507=MANIFOLD_SOLID_BREP('',#506);
#508=ADVANCED_BREP_SHAPE_REPRESENTATION('',(#507),#103);
ENDSEC;
END-ISO-10303-21;
