ISO-10303-21;
HEADER;
/* Generated by software containing ST-Developer
 * from STEP Tools, Inc. (www.steptools.com) 
 */
/* OPTION: strings as raw bytes, not using required /X/ escapes */

FILE_DESCRIPTION(
/* description */ ('Unknown'),
/* implementation_level */ '2;1');

FILE_NAME(
/* name */ 'axle_block avec congés',
/* time_stamp */ '2024-08-14T18:28:55+02:00',
/* author */ ('Unknown'),
/* organization */ ('Unknown'),
/* preprocessor_version */ 'ST-DEVELOPER v19.4',
/* originating_system */ 'Solid Edge',
/* authorisation */ 'Unknown');

FILE_SCHEMA (('AUTOMOTIVE_DESIGN {1 0 10303 214 3 1 1}'));
ENDSEC;

DATA;
#10=PROPERTY_DEFINITION_REPRESENTATION(#14,#12);
#11=PROPERTY_DEFINITION_REPRESENTATION(#15,#13);
#12=REPRESENTATION('',(#16),#601);
#13=REPRESENTATION('',(#17),#601);
#14=PROPERTY_DEFINITION('pmi validation property','',#606);
#15=PROPERTY_DEFINITION('pmi validation property','',#606);
#16=VALUE_REPRESENTATION_ITEM('number of annotations',COUNT_MEASURE(0.));
#17=VALUE_REPRESENTATION_ITEM('number of views',COUNT_MEASURE(0.));
#18=SHAPE_REPRESENTATION_RELATIONSHIP('','',#363,#19);
#19=ADVANCED_BREP_SHAPE_REPRESENTATION('',(#361),#601);
#20=LINE('',#524,#44);
#21=LINE('',#529,#45);
#22=LINE('',#533,#46);
#23=LINE('',#537,#47);
#24=LINE('',#540,#48);
#25=LINE('',#545,#49);
#26=LINE('',#551,#50);
#27=LINE('',#556,#51);
#28=LINE('',#560,#52);
#29=LINE('',#564,#53);
#30=LINE('',#570,#54);
#31=LINE('',#574,#55);
#32=LINE('',#576,#56);
#33=LINE('',#577,#57);
#34=LINE('',#579,#58);
#35=LINE('',#580,#59);
#36=LINE('',#582,#60);
#37=LINE('',#583,#61);
#38=LINE('',#585,#62);
#39=LINE('',#586,#63);
#40=LINE('',#588,#64);
#41=LINE('',#589,#65);
#42=LINE('',#591,#66);
#43=LINE('',#593,#67);
#44=VECTOR('',#427,1000.);
#45=VECTOR('',#430,1000.);
#46=VECTOR('',#433,1000.);
#47=VECTOR('',#436,1000.);
#48=VECTOR('',#439,1000.);
#49=VECTOR('',#442,1000.);
#50=VECTOR('',#449,1000.);
#51=VECTOR('',#452,1000.);
#52=VECTOR('',#455,1000.);
#53=VECTOR('',#458,1000.);
#54=VECTOR('',#463,1000.);
#55=VECTOR('',#466,1000.);
#56=VECTOR('',#469,1000.);
#57=VECTOR('',#470,1000.);
#58=VECTOR('',#473,1000.);
#59=VECTOR('',#474,1000.);
#60=VECTOR('',#477,1000.);
#61=VECTOR('',#478,1000.);
#62=VECTOR('',#481,1000.);
#63=VECTOR('',#482,1000.);
#64=VECTOR('',#485,1000.);
#65=VECTOR('',#486,1000.);
#66=VECTOR('',#489,1000.);
#67=VECTOR('',#492,1000.);
#68=PLANE('',#374);
#69=PLANE('',#382);
#70=PLANE('',#390);
#71=PLANE('',#391);
#72=PLANE('',#392);
#73=PLANE('',#393);
#74=PLANE('',#395);
#75=PLANE('',#397);
#76=ORIENTED_EDGE('',*,*,#164,.F.);
#77=ORIENTED_EDGE('',*,*,#165,.T.);
#78=ORIENTED_EDGE('',*,*,#166,.F.);
#79=ORIENTED_EDGE('',*,*,#167,.T.);
#80=ORIENTED_EDGE('',*,*,#168,.F.);
#81=ORIENTED_EDGE('',*,*,#169,.T.);
#82=ORIENTED_EDGE('',*,*,#165,.F.);
#83=ORIENTED_EDGE('',*,*,#167,.F.);
#84=ORIENTED_EDGE('',*,*,#169,.F.);
#85=ORIENTED_EDGE('',*,*,#170,.F.);
#86=ORIENTED_EDGE('',*,*,#171,.T.);
#87=ORIENTED_EDGE('',*,*,#172,.T.);
#88=ORIENTED_EDGE('',*,*,#173,.T.);
#89=ORIENTED_EDGE('',*,*,#174,.T.);
#90=ORIENTED_EDGE('',*,*,#175,.T.);
#91=ORIENTED_EDGE('',*,*,#176,.T.);
#92=ORIENTED_EDGE('',*,*,#177,.T.);
#93=ORIENTED_EDGE('',*,*,#178,.T.);
#94=ORIENTED_EDGE('',*,*,#179,.T.);
#95=ORIENTED_EDGE('',*,*,#180,.T.);
#96=ORIENTED_EDGE('',*,*,#181,.T.);
#97=ORIENTED_EDGE('',*,*,#182,.T.);
#98=ORIENTED_EDGE('',*,*,#164,.T.);
#99=ORIENTED_EDGE('',*,*,#166,.T.);
#100=ORIENTED_EDGE('',*,*,#168,.T.);
#101=ORIENTED_EDGE('',*,*,#183,.T.);
#102=ORIENTED_EDGE('',*,*,#184,.F.);
#103=ORIENTED_EDGE('',*,*,#185,.T.);
#104=ORIENTED_EDGE('',*,*,#186,.F.);
#105=ORIENTED_EDGE('',*,*,#187,.T.);
#106=ORIENTED_EDGE('',*,*,#188,.F.);
#107=ORIENTED_EDGE('',*,*,#189,.T.);
#108=ORIENTED_EDGE('',*,*,#190,.F.);
#109=ORIENTED_EDGE('',*,*,#191,.T.);
#110=ORIENTED_EDGE('',*,*,#192,.F.);
#111=ORIENTED_EDGE('',*,*,#193,.F.);
#112=ORIENTED_EDGE('',*,*,#194,.F.);
#113=ORIENTED_EDGE('',*,*,#195,.F.);
#114=ORIENTED_EDGE('',*,*,#175,.F.);
#115=ORIENTED_EDGE('',*,*,#196,.T.);
#116=ORIENTED_EDGE('',*,*,#190,.T.);
#117=ORIENTED_EDGE('',*,*,#197,.T.);
#118=ORIENTED_EDGE('',*,*,#177,.F.);
#119=ORIENTED_EDGE('',*,*,#198,.T.);
#120=ORIENTED_EDGE('',*,*,#188,.T.);
#121=ORIENTED_EDGE('',*,*,#199,.T.);
#122=ORIENTED_EDGE('',*,*,#186,.T.);
#123=ORIENTED_EDGE('',*,*,#200,.T.);
#124=ORIENTED_EDGE('',*,*,#171,.F.);
#125=ORIENTED_EDGE('',*,*,#201,.T.);
#126=ORIENTED_EDGE('',*,*,#173,.F.);
#127=ORIENTED_EDGE('',*,*,#202,.T.);
#128=ORIENTED_EDGE('',*,*,#184,.T.);
#129=ORIENTED_EDGE('',*,*,#203,.T.);
#130=ORIENTED_EDGE('',*,*,#192,.T.);
#131=ORIENTED_EDGE('',*,*,#204,.T.);
#132=ORIENTED_EDGE('',*,*,#180,.F.);
#133=ORIENTED_EDGE('',*,*,#205,.F.);
#134=ORIENTED_EDGE('',*,*,#195,.T.);
#135=ORIENTED_EDGE('',*,*,#206,.T.);
#136=ORIENTED_EDGE('',*,*,#181,.F.);
#137=ORIENTED_EDGE('',*,*,#204,.F.);
#138=ORIENTED_EDGE('',*,*,#194,.T.);
#139=ORIENTED_EDGE('',*,*,#207,.T.);
#140=ORIENTED_EDGE('',*,*,#182,.F.);
#141=ORIENTED_EDGE('',*,*,#206,.F.);
#142=ORIENTED_EDGE('',*,*,#193,.T.);
#143=ORIENTED_EDGE('',*,*,#205,.T.);
#144=ORIENTED_EDGE('',*,*,#179,.F.);
#145=ORIENTED_EDGE('',*,*,#207,.F.);
#146=ORIENTED_EDGE('',*,*,#183,.F.);
#147=ORIENTED_EDGE('',*,*,#170,.T.);
#148=ORIENTED_EDGE('',*,*,#178,.F.);
#149=ORIENTED_EDGE('',*,*,#199,.F.);
#150=ORIENTED_EDGE('',*,*,#187,.F.);
#151=ORIENTED_EDGE('',*,*,#201,.F.);
#152=ORIENTED_EDGE('',*,*,#176,.F.);
#153=ORIENTED_EDGE('',*,*,#197,.F.);
#154=ORIENTED_EDGE('',*,*,#189,.F.);
#155=ORIENTED_EDGE('',*,*,#198,.F.);
#156=ORIENTED_EDGE('',*,*,#174,.F.);
#157=ORIENTED_EDGE('',*,*,#203,.F.);
#158=ORIENTED_EDGE('',*,*,#191,.F.);
#159=ORIENTED_EDGE('',*,*,#196,.F.);
#160=ORIENTED_EDGE('',*,*,#172,.F.);
#161=ORIENTED_EDGE('',*,*,#200,.F.);
#162=ORIENTED_EDGE('',*,*,#185,.F.);
#163=ORIENTED_EDGE('',*,*,#202,.F.);
#164=EDGE_CURVE('',#208,#208,#240,.T.);
#165=EDGE_CURVE('',#209,#209,#241,.T.);
#166=EDGE_CURVE('',#210,#210,#242,.T.);
#167=EDGE_CURVE('',#211,#211,#243,.T.);
#168=EDGE_CURVE('',#212,#212,#244,.T.);
#169=EDGE_CURVE('',#213,#213,#245,.T.);
#170=EDGE_CURVE('',#214,#214,#246,.T.);
#171=EDGE_CURVE('',#215,#216,#20,.T.);
#172=EDGE_CURVE('',#216,#217,#247,.T.);
#173=EDGE_CURVE('',#217,#218,#21,.T.);
#174=EDGE_CURVE('',#218,#219,#248,.T.);
#175=EDGE_CURVE('',#219,#220,#22,.T.);
#176=EDGE_CURVE('',#220,#221,#249,.T.);
#177=EDGE_CURVE('',#221,#222,#23,.T.);
#178=EDGE_CURVE('',#222,#215,#250,.T.);
#179=EDGE_CURVE('',#223,#224,#24,.T.);
#180=EDGE_CURVE('',#224,#225,#251,.T.);
#181=EDGE_CURVE('',#225,#226,#25,.T.);
#182=EDGE_CURVE('',#226,#223,#252,.T.);
#183=EDGE_CURVE('',#227,#227,#253,.T.);
#184=EDGE_CURVE('',#228,#229,#26,.T.);
#185=EDGE_CURVE('',#228,#230,#254,.F.);
#186=EDGE_CURVE('',#231,#230,#27,.T.);
#187=EDGE_CURVE('',#231,#232,#255,.F.);
#188=EDGE_CURVE('',#233,#232,#28,.T.);
#189=EDGE_CURVE('',#233,#234,#256,.F.);
#190=EDGE_CURVE('',#235,#234,#29,.T.);
#191=EDGE_CURVE('',#235,#229,#257,.F.);
#192=EDGE_CURVE('',#236,#237,#258,.F.);
#193=EDGE_CURVE('',#238,#236,#30,.T.);
#194=EDGE_CURVE('',#239,#238,#259,.F.);
#195=EDGE_CURVE('',#237,#239,#31,.T.);
#196=EDGE_CURVE('',#219,#235,#32,.T.);
#197=EDGE_CURVE('',#234,#220,#33,.F.);
#198=EDGE_CURVE('',#221,#233,#34,.T.);
#199=EDGE_CURVE('',#232,#222,#35,.F.);
#200=EDGE_CURVE('',#230,#216,#36,.F.);
#201=EDGE_CURVE('',#215,#231,#37,.T.);
#202=EDGE_CURVE('',#217,#228,#38,.T.);
#203=EDGE_CURVE('',#229,#218,#39,.F.);
#204=EDGE_CURVE('',#237,#225,#40,.T.);
#205=EDGE_CURVE('',#236,#224,#41,.T.);
#206=EDGE_CURVE('',#239,#226,#42,.T.);
#207=EDGE_CURVE('',#238,#223,#43,.T.);
#208=VERTEX_POINT('',#508);
#209=VERTEX_POINT('',#510);
#210=VERTEX_POINT('',#513);
#211=VERTEX_POINT('',#515);
#212=VERTEX_POINT('',#518);
#213=VERTEX_POINT('',#520);
#214=VERTEX_POINT('',#523);
#215=VERTEX_POINT('',#525);
#216=VERTEX_POINT('',#526);
#217=VERTEX_POINT('',#528);
#218=VERTEX_POINT('',#530);
#219=VERTEX_POINT('',#532);
#220=VERTEX_POINT('',#534);
#221=VERTEX_POINT('',#536);
#222=VERTEX_POINT('',#538);
#223=VERTEX_POINT('',#541);
#224=VERTEX_POINT('',#542);
#225=VERTEX_POINT('',#544);
#226=VERTEX_POINT('',#546);
#227=VERTEX_POINT('',#550);
#228=VERTEX_POINT('',#552);
#229=VERTEX_POINT('',#553);
#230=VERTEX_POINT('',#555);
#231=VERTEX_POINT('',#557);
#232=VERTEX_POINT('',#559);
#233=VERTEX_POINT('',#561);
#234=VERTEX_POINT('',#563);
#235=VERTEX_POINT('',#565);
#236=VERTEX_POINT('',#568);
#237=VERTEX_POINT('',#569);
#238=VERTEX_POINT('',#571);
#239=VERTEX_POINT('',#573);
#240=CIRCLE('',#366,2.5);
#241=CIRCLE('',#367,2.5);
#242=CIRCLE('',#369,2.5);
#243=CIRCLE('',#370,2.5);
#244=CIRCLE('',#372,2.5);
#245=CIRCLE('',#373,2.5);
#246=CIRCLE('',#375,2.5);
#247=CIRCLE('',#376,5.);
#248=CIRCLE('',#377,5.);
#249=CIRCLE('',#378,5.);
#250=CIRCLE('',#379,5.);
#251=CIRCLE('',#380,7.);
#252=CIRCLE('',#381,7.);
#253=CIRCLE('',#383,2.5);
#254=CIRCLE('',#384,5.);
#255=CIRCLE('',#385,5.);
#256=CIRCLE('',#386,5.);
#257=CIRCLE('',#387,5.);
#258=CIRCLE('',#388,7.);
#259=CIRCLE('',#389,7.);
#260=EDGE_LOOP('',(#76));
#261=EDGE_LOOP('',(#77));
#262=EDGE_LOOP('',(#78));
#263=EDGE_LOOP('',(#79));
#264=EDGE_LOOP('',(#80));
#265=EDGE_LOOP('',(#81));
#266=EDGE_LOOP('',(#82));
#267=EDGE_LOOP('',(#83));
#268=EDGE_LOOP('',(#84));
#269=EDGE_LOOP('',(#85));
#270=EDGE_LOOP('',(#86,#87,#88,#89,#90,#91,#92,#93));
#271=EDGE_LOOP('',(#94,#95,#96,#97));
#272=EDGE_LOOP('',(#98));
#273=EDGE_LOOP('',(#99));
#274=EDGE_LOOP('',(#100));
#275=EDGE_LOOP('',(#101));
#276=EDGE_LOOP('',(#102,#103,#104,#105,#106,#107,#108,#109));
#277=EDGE_LOOP('',(#110,#111,#112,#113));
#278=EDGE_LOOP('',(#114,#115,#116,#117));
#279=EDGE_LOOP('',(#118,#119,#120,#121));
#280=EDGE_LOOP('',(#122,#123,#124,#125));
#281=EDGE_LOOP('',(#126,#127,#128,#129));
#282=EDGE_LOOP('',(#130,#131,#132,#133));
#283=EDGE_LOOP('',(#134,#135,#136,#137));
#284=EDGE_LOOP('',(#138,#139,#140,#141));
#285=EDGE_LOOP('',(#142,#143,#144,#145));
#286=EDGE_LOOP('',(#146));
#287=EDGE_LOOP('',(#147));
#288=EDGE_LOOP('',(#148,#149,#150,#151));
#289=EDGE_LOOP('',(#152,#153,#154,#155));
#290=EDGE_LOOP('',(#156,#157,#158,#159));
#291=EDGE_LOOP('',(#160,#161,#162,#163));
#292=FACE_BOUND('',#260,.T.);
#293=FACE_BOUND('',#261,.T.);
#294=FACE_BOUND('',#262,.T.);
#295=FACE_BOUND('',#263,.T.);
#296=FACE_BOUND('',#264,.T.);
#297=FACE_BOUND('',#265,.T.);
#298=FACE_BOUND('',#266,.T.);
#299=FACE_BOUND('',#267,.T.);
#300=FACE_BOUND('',#268,.T.);
#301=FACE_BOUND('',#269,.T.);
#302=FACE_BOUND('',#270,.T.);
#303=FACE_BOUND('',#271,.T.);
#304=FACE_BOUND('',#272,.T.);
#305=FACE_BOUND('',#273,.T.);
#306=FACE_BOUND('',#274,.T.);
#307=FACE_BOUND('',#275,.T.);
#308=FACE_BOUND('',#276,.T.);
#309=FACE_BOUND('',#277,.T.);
#310=FACE_BOUND('',#278,.T.);
#311=FACE_BOUND('',#279,.T.);
#312=FACE_BOUND('',#280,.T.);
#313=FACE_BOUND('',#281,.T.);
#314=FACE_BOUND('',#282,.T.);
#315=FACE_BOUND('',#283,.T.);
#316=FACE_BOUND('',#284,.T.);
#317=FACE_BOUND('',#285,.T.);
#318=FACE_BOUND('',#286,.T.);
#319=FACE_BOUND('',#287,.T.);
#320=FACE_BOUND('',#288,.T.);
#321=FACE_BOUND('',#289,.T.);
#322=FACE_BOUND('',#290,.T.);
#323=FACE_BOUND('',#291,.T.);
#324=CYLINDRICAL_SURFACE('',#365,2.5);
#325=CYLINDRICAL_SURFACE('',#368,2.5);
#326=CYLINDRICAL_SURFACE('',#371,2.5);
#327=CYLINDRICAL_SURFACE('',#394,7.);
#328=CYLINDRICAL_SURFACE('',#396,7.);
#329=CYLINDRICAL_SURFACE('',#398,2.5);
#330=CYLINDRICAL_SURFACE('',#399,5.);
#331=CYLINDRICAL_SURFACE('',#400,5.);
#332=CYLINDRICAL_SURFACE('',#401,5.);
#333=CYLINDRICAL_SURFACE('',#402,5.);
#334=ADVANCED_FACE('',(#292,#293),#324,.F.);
#335=ADVANCED_FACE('',(#294,#295),#325,.F.);
#336=ADVANCED_FACE('',(#296,#297),#326,.F.);
#337=ADVANCED_FACE('',(#298,#299,#300,#301,#302,#303),#68,.T.);
#338=ADVANCED_FACE('',(#304,#305,#306,#307,#308,#309),#69,.F.);
#339=ADVANCED_FACE('',(#310),#70,.F.);
#340=ADVANCED_FACE('',(#311),#71,.F.);
#341=ADVANCED_FACE('',(#312),#72,.F.);
#342=ADVANCED_FACE('',(#313),#73,.F.);
#343=ADVANCED_FACE('',(#314),#327,.F.);
#344=ADVANCED_FACE('',(#315),#74,.T.);
#345=ADVANCED_FACE('',(#316),#328,.F.);
#346=ADVANCED_FACE('',(#317),#75,.T.);
#347=ADVANCED_FACE('',(#318,#319),#329,.F.);
#348=ADVANCED_FACE('',(#320),#330,.T.);
#349=ADVANCED_FACE('',(#321),#331,.T.);
#350=ADVANCED_FACE('',(#322),#332,.T.);
#351=ADVANCED_FACE('',(#323),#333,.T.);
#352=CLOSED_SHELL('',(#334,#335,#336,#337,#338,#339,#340,#341,#342,#343,
#344,#345,#346,#347,#348,#349,#350,#351));
#353=STYLED_ITEM('',(#354),#361);
#354=PRESENTATION_STYLE_ASSIGNMENT((#355));
#355=SURFACE_STYLE_USAGE(.BOTH.,#356);
#356=SURFACE_SIDE_STYLE('',(#357));
#357=SURFACE_STYLE_FILL_AREA(#358);
#358=FILL_AREA_STYLE('',(#359));
#359=FILL_AREA_STYLE_COLOUR('',#360);
#360=COLOUR_RGB('',0.506983280181885,0.531564235687256,0.550000011920929);
#361=MANIFOLD_SOLID_BREP('',#352);
#362=SHAPE_DEFINITION_REPRESENTATION(#606,#363);
#363=SHAPE_REPRESENTATION('axle_block',(#364),#601);
#364=AXIS2_PLACEMENT_3D('',#505,#403,#404);
#365=AXIS2_PLACEMENT_3D('',#506,#405,#406);
#366=AXIS2_PLACEMENT_3D('',#507,#407,#408);
#367=AXIS2_PLACEMENT_3D('',#509,#409,#410);
#368=AXIS2_PLACEMENT_3D('',#511,#411,#412);
#369=AXIS2_PLACEMENT_3D('',#512,#413,#414);
#370=AXIS2_PLACEMENT_3D('',#514,#415,#416);
#371=AXIS2_PLACEMENT_3D('',#516,#417,#418);
#372=AXIS2_PLACEMENT_3D('',#517,#419,#420);
#373=AXIS2_PLACEMENT_3D('',#519,#421,#422);
#374=AXIS2_PLACEMENT_3D('',#521,#423,#424);
#375=AXIS2_PLACEMENT_3D('',#522,#425,#426);
#376=AXIS2_PLACEMENT_3D('',#527,#428,#429);
#377=AXIS2_PLACEMENT_3D('',#531,#431,#432);
#378=AXIS2_PLACEMENT_3D('',#535,#434,#435);
#379=AXIS2_PLACEMENT_3D('',#539,#437,#438);
#380=AXIS2_PLACEMENT_3D('',#543,#440,#441);
#381=AXIS2_PLACEMENT_3D('',#547,#443,#444);
#382=AXIS2_PLACEMENT_3D('',#548,#445,#446);
#383=AXIS2_PLACEMENT_3D('',#549,#447,#448);
#384=AXIS2_PLACEMENT_3D('',#554,#450,#451);
#385=AXIS2_PLACEMENT_3D('',#558,#453,#454);
#386=AXIS2_PLACEMENT_3D('',#562,#456,#457);
#387=AXIS2_PLACEMENT_3D('',#566,#459,#460);
#388=AXIS2_PLACEMENT_3D('',#567,#461,#462);
#389=AXIS2_PLACEMENT_3D('',#572,#464,#465);
#390=AXIS2_PLACEMENT_3D('',#575,#467,#468);
#391=AXIS2_PLACEMENT_3D('',#578,#471,#472);
#392=AXIS2_PLACEMENT_3D('',#581,#475,#476);
#393=AXIS2_PLACEMENT_3D('',#584,#479,#480);
#394=AXIS2_PLACEMENT_3D('',#587,#483,#484);
#395=AXIS2_PLACEMENT_3D('',#590,#487,#488);
#396=AXIS2_PLACEMENT_3D('',#592,#490,#491);
#397=AXIS2_PLACEMENT_3D('',#594,#493,#494);
#398=AXIS2_PLACEMENT_3D('',#595,#495,#496);
#399=AXIS2_PLACEMENT_3D('',#596,#497,#498);
#400=AXIS2_PLACEMENT_3D('',#597,#499,#500);
#401=AXIS2_PLACEMENT_3D('',#598,#501,#502);
#402=AXIS2_PLACEMENT_3D('',#599,#503,#504);
#403=DIRECTION('',(0.,0.,1.));
#404=DIRECTION('',(1.,0.,0.));
#405=DIRECTION('',(0.,-1.,0.));
#406=DIRECTION('',(0.,0.,-1.));
#407=DIRECTION('',(0.,-1.,0.));
#408=DIRECTION('',(0.,0.,-1.));
#409=DIRECTION('',(0.,-1.,0.));
#410=DIRECTION('',(1.,0.,0.));
#411=DIRECTION('',(0.,-1.,0.));
#412=DIRECTION('',(0.,0.,-1.));
#413=DIRECTION('',(0.,-1.,0.));
#414=DIRECTION('',(0.,0.,-1.));
#415=DIRECTION('',(0.,-1.,0.));
#416=DIRECTION('',(1.,0.,0.));
#417=DIRECTION('',(0.,-1.,0.));
#418=DIRECTION('',(0.,0.,-1.));
#419=DIRECTION('',(0.,-1.,0.));
#420=DIRECTION('',(0.,0.,-1.));
#421=DIRECTION('',(0.,-1.,0.));
#422=DIRECTION('',(1.,0.,0.));
#423=DIRECTION('',(0.,-1.,0.));
#424=DIRECTION('',(0.,0.,-1.));
#425=DIRECTION('',(0.,-1.,0.));
#426=DIRECTION('',(1.,0.,0.));
#427=DIRECTION('',(0.,0.,-1.));
#428=DIRECTION('',(0.,-1.,0.));
#429=DIRECTION('',(0.,0.,-1.));
#430=DIRECTION('',(1.,0.,0.));
#431=DIRECTION('',(0.,-1.,0.));
#432=DIRECTION('',(0.,0.,-1.));
#433=DIRECTION('',(0.,0.,1.));
#434=DIRECTION('',(0.,-1.,0.));
#435=DIRECTION('',(0.,0.,-1.));
#436=DIRECTION('',(-1.,0.,0.));
#437=DIRECTION('',(0.,-1.,0.));
#438=DIRECTION('',(0.,0.,-1.));
#439=DIRECTION('',(-1.,0.,1.77049473373765E-16));
#440=DIRECTION('',(0.,1.,0.));
#441=DIRECTION('',(1.,0.,0.));
#442=DIRECTION('',(1.,0.,1.77049473373765E-16));
#443=DIRECTION('',(0.,1.,0.));
#444=DIRECTION('',(-1.,0.,0.));
#445=DIRECTION('',(0.,-1.,0.));
#446=DIRECTION('',(0.,0.,-1.));
#447=DIRECTION('',(0.,-1.,0.));
#448=DIRECTION('',(0.,0.,-1.));
#449=DIRECTION('',(1.,0.,0.));
#450=DIRECTION('',(0.,-1.,0.));
#451=DIRECTION('',(0.,0.,-1.));
#452=DIRECTION('',(0.,0.,-1.));
#453=DIRECTION('',(0.,-1.,0.));
#454=DIRECTION('',(0.,0.,-1.));
#455=DIRECTION('',(-1.,0.,0.));
#456=DIRECTION('',(0.,-1.,0.));
#457=DIRECTION('',(0.,0.,-1.));
#458=DIRECTION('',(0.,0.,1.));
#459=DIRECTION('',(0.,-1.,0.));
#460=DIRECTION('',(0.,0.,-1.));
#461=DIRECTION('',(0.,-1.,0.));
#462=DIRECTION('',(0.,0.,-1.));
#463=DIRECTION('',(-1.,0.,1.77049473373765E-16));
#464=DIRECTION('',(0.,-1.,0.));
#465=DIRECTION('',(0.,0.,-1.));
#466=DIRECTION('',(1.,0.,1.77049473373765E-16));
#467=DIRECTION('',(-1.,0.,0.));
#468=DIRECTION('',(0.,0.,1.));
#469=DIRECTION('',(0.,1.,0.));
#470=DIRECTION('',(0.,1.,0.));
#471=DIRECTION('',(0.,0.,-1.));
#472=DIRECTION('',(-1.,0.,0.));
#473=DIRECTION('',(0.,1.,0.));
#474=DIRECTION('',(0.,1.,0.));
#475=DIRECTION('',(1.,0.,0.));
#476=DIRECTION('',(0.,0.,-1.));
#477=DIRECTION('',(0.,1.,0.));
#478=DIRECTION('',(0.,1.,0.));
#479=DIRECTION('',(0.,0.,1.));
#480=DIRECTION('',(1.,0.,0.));
#481=DIRECTION('',(0.,1.,0.));
#482=DIRECTION('',(0.,1.,0.));
#483=DIRECTION('',(0.,-1.,0.));
#484=DIRECTION('',(0.,0.,-1.));
#485=DIRECTION('',(0.,-1.,0.));
#486=DIRECTION('',(0.,-1.,0.));
#487=DIRECTION('',(1.77049473373765E-16,0.,-1.));
#488=DIRECTION('',(-1.,0.,-1.77049473373765E-16));
#489=DIRECTION('',(0.,-1.,0.));
#490=DIRECTION('',(0.,-1.,0.));
#491=DIRECTION('',(0.,0.,-1.));
#492=DIRECTION('',(0.,-1.,0.));
#493=DIRECTION('',(1.77049473373765E-16,0.,1.));
#494=DIRECTION('',(1.,0.,-1.77049473373765E-16));
#495=DIRECTION('',(0.,-1.,0.));
#496=DIRECTION('',(0.,0.,-1.));
#497=DIRECTION('',(0.,1.,0.));
#498=DIRECTION('',(0.,0.,1.));
#499=DIRECTION('',(0.,1.,0.));
#500=DIRECTION('',(0.,0.,1.));
#501=DIRECTION('',(0.,1.,0.));
#502=DIRECTION('',(0.,0.,1.));
#503=DIRECTION('',(0.,1.,0.));
#504=DIRECTION('',(0.,0.,1.));
#505=CARTESIAN_POINT('',(0.,0.,0.));
#506=CARTESIAN_POINT('',(24.7462892683088,72.1233628494283,-14.2040912720627));
#507=CARTESIAN_POINT('',(24.7462892683088,0.,-14.2040912720627));
#508=CARTESIAN_POINT('',(24.7462892683088,0.,-16.7040912720627));
#509=CARTESIAN_POINT('',(24.7462892683088,-9.,-14.2040912720627));
#510=CARTESIAN_POINT('',(27.2462892683088,-9.,-14.2040912720627));
#511=CARTESIAN_POINT('',(24.7462892683088,72.1233628494283,10.));
#512=CARTESIAN_POINT('',(24.7462892683088,0.,10.));
#513=CARTESIAN_POINT('',(24.7462892683088,0.,7.5));
#514=CARTESIAN_POINT('',(24.7462892683088,-9.,10.));
#515=CARTESIAN_POINT('',(27.2462892683088,-9.,10.));
#516=CARTESIAN_POINT('',(-25.,72.1233628494283,-14.2040912720627));
#517=CARTESIAN_POINT('',(-25.,0.,-14.2040912720627));
#518=CARTESIAN_POINT('',(-25.,0.,-16.7040912720627));
#519=CARTESIAN_POINT('',(-25.,-9.,-14.2040912720627));
#520=CARTESIAN_POINT('',(-22.5,-9.,-14.2040912720627));
#521=CARTESIAN_POINT('',(0.,-9.,0.));
#522=CARTESIAN_POINT('',(-25.,-9.,10.));
#523=CARTESIAN_POINT('',(-22.5,-9.,10.));
#524=CARTESIAN_POINT('',(-35.,-9.,20.));
#525=CARTESIAN_POINT('',(-35.,-9.,15.));
#526=CARTESIAN_POINT('',(-35.,-9.,-15.));
#527=CARTESIAN_POINT('',(-30.,-9.,-15.));
#528=CARTESIAN_POINT('',(-30.,-9.,-20.));
#529=CARTESIAN_POINT('',(-35.,-9.,-20.));
#530=CARTESIAN_POINT('',(30.,-9.,-20.));
#531=CARTESIAN_POINT('',(30.,-9.,-15.));
#532=CARTESIAN_POINT('',(35.,-9.,-15.));
#533=CARTESIAN_POINT('',(35.,-9.,-20.));
#534=CARTESIAN_POINT('',(35.,-9.,15.));
#535=CARTESIAN_POINT('',(30.,-9.,15.));
#536=CARTESIAN_POINT('',(30.,-9.,20.));
#537=CARTESIAN_POINT('',(35.,-9.,20.));
#538=CARTESIAN_POINT('',(-30.,-9.,20.));
#539=CARTESIAN_POINT('',(-30.,-9.,15.));
#540=CARTESIAN_POINT('',(4.89897948556636,-9.,-5.));
#541=CARTESIAN_POINT('',(4.89897948556636,-9.,-5.));
#542=CARTESIAN_POINT('',(-4.89897948556636,-9.,-5.));
#543=CARTESIAN_POINT('',(0.,-9.,0.));
#544=CARTESIAN_POINT('',(-4.89897948556636,-9.,5.));
#545=CARTESIAN_POINT('',(-4.89897948556636,-9.,5.));
#546=CARTESIAN_POINT('',(4.89897948556636,-9.,5.));
#547=CARTESIAN_POINT('',(0.,-9.,0.));
#548=CARTESIAN_POINT('',(0.,0.,0.));
#549=CARTESIAN_POINT('',(-25.,0.,10.));
#550=CARTESIAN_POINT('',(-25.,0.,7.5));
#551=CARTESIAN_POINT('',(-35.,0.,-20.));
#552=CARTESIAN_POINT('',(-30.,0.,-20.));
#553=CARTESIAN_POINT('',(30.,0.,-20.));
#554=CARTESIAN_POINT('',(-30.,0.,-15.));
#555=CARTESIAN_POINT('',(-35.,0.,-15.));
#556=CARTESIAN_POINT('',(-35.,0.,20.));
#557=CARTESIAN_POINT('',(-35.,0.,15.));
#558=CARTESIAN_POINT('',(-30.,0.,15.));
#559=CARTESIAN_POINT('',(-30.,0.,20.));
#560=CARTESIAN_POINT('',(35.,0.,20.));
#561=CARTESIAN_POINT('',(30.,0.,20.));
#562=CARTESIAN_POINT('',(30.,0.,15.));
#563=CARTESIAN_POINT('',(35.,0.,15.));
#564=CARTESIAN_POINT('',(35.,0.,-20.));
#565=CARTESIAN_POINT('',(35.,0.,-15.));
#566=CARTESIAN_POINT('',(30.,0.,-15.));
#567=CARTESIAN_POINT('',(0.,0.,0.));
#568=CARTESIAN_POINT('',(-4.89897948556636,0.,-5.));
#569=CARTESIAN_POINT('',(-4.89897948556636,0.,5.));
#570=CARTESIAN_POINT('',(-8.85247366868827E-16,0.,-5.));
#571=CARTESIAN_POINT('',(4.89897948556636,0.,-5.));
#572=CARTESIAN_POINT('',(0.,0.,0.));
#573=CARTESIAN_POINT('',(4.89897948556636,0.,5.));
#574=CARTESIAN_POINT('',(-8.85247366868827E-16,0.,5.));
#575=CARTESIAN_POINT('',(35.,-9.,-20.));
#576=CARTESIAN_POINT('',(35.,-9.,-15.));
#577=CARTESIAN_POINT('',(35.,-9.,15.));
#578=CARTESIAN_POINT('',(35.,-9.,20.));
#579=CARTESIAN_POINT('',(30.,-9.,20.));
#580=CARTESIAN_POINT('',(-30.,-9.,20.));
#581=CARTESIAN_POINT('',(-35.,-9.,20.));
#582=CARTESIAN_POINT('',(-35.,-9.,-15.));
#583=CARTESIAN_POINT('',(-35.,-9.,15.));
#584=CARTESIAN_POINT('',(-35.,-9.,-20.));
#585=CARTESIAN_POINT('',(-30.,-9.,-20.));
#586=CARTESIAN_POINT('',(30.,-9.,-20.));
#587=CARTESIAN_POINT('',(0.,72.1233628494283,0.));
#588=CARTESIAN_POINT('',(-4.89897948556636,72.1233628494283,5.));
#589=CARTESIAN_POINT('',(-4.89897948556636,72.1233628494283,-5.));
#590=CARTESIAN_POINT('',(-4.89897948556636,72.1233628494283,5.));
#591=CARTESIAN_POINT('',(4.89897948556636,72.1233628494283,5.));
#592=CARTESIAN_POINT('',(0.,72.1233628494283,0.));
#593=CARTESIAN_POINT('',(4.89897948556636,72.1233628494283,-5.));
#594=CARTESIAN_POINT('',(4.89897948556636,72.1233628494283,-5.));
#595=CARTESIAN_POINT('',(-25.,72.1233628494283,10.));
#596=CARTESIAN_POINT('',(-30.,-9.,15.));
#597=CARTESIAN_POINT('',(30.,-9.,15.));
#598=CARTESIAN_POINT('',(30.,-9.,-15.));
#599=CARTESIAN_POINT('',(-30.,-9.,-15.));
#600=MECHANICAL_DESIGN_GEOMETRIC_PRESENTATION_REPRESENTATION('',(#353),
#601);
#601=(
GEOMETRIC_REPRESENTATION_CONTEXT(3)
GLOBAL_UNCERTAINTY_ASSIGNED_CONTEXT((#602))
GLOBAL_UNIT_ASSIGNED_CONTEXT((#605,#604,#603))
REPRESENTATION_CONTEXT('axle_block','TOP_LEVEL_ASSEMBLY_PART')
);
#602=UNCERTAINTY_MEASURE_WITH_UNIT(LENGTH_MEASURE(0.005),#605,
'DISTANCE_ACCURACY_VALUE','Maximum Tolerance applied to model');
#603=(
NAMED_UNIT(*)
SI_UNIT($,.STERADIAN.)
SOLID_ANGLE_UNIT()
);
#604=(
NAMED_UNIT(*)
PLANE_ANGLE_UNIT()
SI_UNIT($,.RADIAN.)
);
#605=(
LENGTH_UNIT()
NAMED_UNIT(*)
SI_UNIT(.MILLI.,.METRE.)
);
#606=PRODUCT_DEFINITION_SHAPE('','',#607);
#607=PRODUCT_DEFINITION('','',#609,#608);
#608=PRODUCT_DEFINITION_CONTEXT('',#615,'design');
#609=PRODUCT_DEFINITION_FORMATION_WITH_SPECIFIED_SOURCE('','',#611,
 .NOT_KNOWN.);
#610=PRODUCT_RELATED_PRODUCT_CATEGORY('','',(#611));
#611=PRODUCT('axle_block','axle_block','axle_block',(#613));
#612=PRODUCT_CATEGORY('','');
#613=PRODUCT_CONTEXT('',#615,'mechanical');
#614=APPLICATION_PROTOCOL_DEFINITION('international standard',
'automotive_design',2010,#615);
#615=APPLICATION_CONTEXT(
'core data for automotive mechanical design processes');
ENDSEC;
END-ISO-10303-21;
