ISO-10303-21;
HEADER;
/* Generated by software containing ST-Developer
 * from STEP Tools, Inc. (www.steptools.com) 
 */
/* OPTION: strings as raw bytes, not using required /X/ escapes */

FILE_DESCRIPTION(
/* description */ ('Unknown'),
/* implementation_level */ '2;1');

FILE_NAME(
/* name */ 'axle_block',
/* time_stamp */ '2024-08-21T09:56:39+02:00',
/* author */ ('Unknown'),
/* organization */ ('Unknown'),
/* preprocessor_version */ 'ST-DEVELOPER v19.4',
/* originating_system */ 'Solid Edge',
/* authorisation */ 'Unknown');

FILE_SCHEMA (('AUTOMOTIVE_DESIGN {1 0 10303 214 3 1 1}'));
ENDSEC;

DATA;
#10=PROPERTY_DEFINITION_REPRESENTATION(#14,#12);
#11=PROPERTY_DEFINITION_REPRESENTATION(#15,#13);
#12=REPRESENTATION('',(#16),#659);
#13=REPRESENTATION('',(#17),#659);
#14=PROPERTY_DEFINITION('pmi validation property','',#664);
#15=PROPERTY_DEFINITION('pmi validation property','',#664);
#16=VALUE_REPRESENTATION_ITEM('number of annotations',COUNT_MEASURE(0.));
#17=VALUE_REPRESENTATION_ITEM('number of views',COUNT_MEASURE(0.));
#18=SHAPE_REPRESENTATION_RELATIONSHIP('','',#397,#19);
#19=ADVANCED_BREP_SHAPE_REPRESENTATION('',(#395),#659);
#20=LINE('',#569,#48);
#21=LINE('',#572,#49);
#22=LINE('',#576,#50);
#23=LINE('',#580,#51);
#24=LINE('',#584,#52);
#25=LINE('',#588,#53);
#26=LINE('',#590,#54);
#27=LINE('',#592,#55);
#28=LINE('',#596,#56);
#29=LINE('',#600,#57);
#30=LINE('',#606,#58);
#31=LINE('',#611,#59);
#32=LINE('',#615,#60);
#33=LINE('',#619,#61);
#34=LINE('',#625,#62);
#35=LINE('',#629,#63);
#36=LINE('',#632,#64);
#37=LINE('',#633,#65);
#38=LINE('',#635,#66);
#39=LINE('',#636,#67);
#40=LINE('',#638,#68);
#41=LINE('',#639,#69);
#42=LINE('',#641,#70);
#43=LINE('',#642,#71);
#44=LINE('',#644,#72);
#45=LINE('',#645,#73);
#46=LINE('',#648,#74);
#47=LINE('',#650,#75);
#48=VECTOR('',#462,1000.);
#49=VECTOR('',#463,1000.);
#50=VECTOR('',#466,1000.);
#51=VECTOR('',#469,1000.);
#52=VECTOR('',#472,1000.);
#53=VECTOR('',#475,1000.);
#54=VECTOR('',#476,1000.);
#55=VECTOR('',#477,1000.);
#56=VECTOR('',#480,1000.);
#57=VECTOR('',#483,1000.);
#58=VECTOR('',#490,1000.);
#59=VECTOR('',#493,1000.);
#60=VECTOR('',#496,1000.);
#61=VECTOR('',#499,1000.);
#62=VECTOR('',#504,1000.);
#63=VECTOR('',#507,1000.);
#64=VECTOR('',#512,1000.);
#65=VECTOR('',#513,1000.);
#66=VECTOR('',#516,1000.);
#67=VECTOR('',#517,1000.);
#68=VECTOR('',#520,1000.);
#69=VECTOR('',#521,1000.);
#70=VECTOR('',#524,1000.);
#71=VECTOR('',#525,1000.);
#72=VECTOR('',#528,1000.);
#73=VECTOR('',#529,1000.);
#74=VECTOR('',#534,1000.);
#75=VECTOR('',#537,1000.);
#76=PLANE('',#408);
#77=PLANE('',#416);
#78=PLANE('',#424);
#79=PLANE('',#426);
#80=PLANE('',#427);
#81=PLANE('',#428);
#82=PLANE('',#430);
#83=PLANE('',#433);
#84=ORIENTED_EDGE('',*,*,#184,.F.);
#85=ORIENTED_EDGE('',*,*,#185,.T.);
#86=ORIENTED_EDGE('',*,*,#186,.F.);
#87=ORIENTED_EDGE('',*,*,#187,.T.);
#88=ORIENTED_EDGE('',*,*,#188,.F.);
#89=ORIENTED_EDGE('',*,*,#189,.T.);
#90=ORIENTED_EDGE('',*,*,#190,.F.);
#91=ORIENTED_EDGE('',*,*,#191,.T.);
#92=ORIENTED_EDGE('',*,*,#192,.T.);
#93=ORIENTED_EDGE('',*,*,#193,.T.);
#94=ORIENTED_EDGE('',*,*,#194,.T.);
#95=ORIENTED_EDGE('',*,*,#195,.T.);
#96=ORIENTED_EDGE('',*,*,#196,.T.);
#97=ORIENTED_EDGE('',*,*,#197,.T.);
#98=ORIENTED_EDGE('',*,*,#198,.T.);
#99=ORIENTED_EDGE('',*,*,#199,.T.);
#100=ORIENTED_EDGE('',*,*,#200,.F.);
#101=ORIENTED_EDGE('',*,*,#201,.T.);
#102=ORIENTED_EDGE('',*,*,#202,.T.);
#103=ORIENTED_EDGE('',*,*,#203,.T.);
#104=ORIENTED_EDGE('',*,*,#204,.T.);
#105=ORIENTED_EDGE('',*,*,#205,.T.);
#106=ORIENTED_EDGE('',*,*,#187,.F.);
#107=ORIENTED_EDGE('',*,*,#206,.F.);
#108=ORIENTED_EDGE('',*,*,#189,.F.);
#109=ORIENTED_EDGE('',*,*,#185,.F.);
#110=ORIENTED_EDGE('',*,*,#184,.T.);
#111=ORIENTED_EDGE('',*,*,#186,.T.);
#112=ORIENTED_EDGE('',*,*,#188,.T.);
#113=ORIENTED_EDGE('',*,*,#207,.T.);
#114=ORIENTED_EDGE('',*,*,#208,.F.);
#115=ORIENTED_EDGE('',*,*,#209,.T.);
#116=ORIENTED_EDGE('',*,*,#210,.F.);
#117=ORIENTED_EDGE('',*,*,#211,.T.);
#118=ORIENTED_EDGE('',*,*,#212,.F.);
#119=ORIENTED_EDGE('',*,*,#213,.T.);
#120=ORIENTED_EDGE('',*,*,#214,.F.);
#121=ORIENTED_EDGE('',*,*,#215,.T.);
#122=ORIENTED_EDGE('',*,*,#216,.F.);
#123=ORIENTED_EDGE('',*,*,#217,.F.);
#124=ORIENTED_EDGE('',*,*,#218,.F.);
#125=ORIENTED_EDGE('',*,*,#219,.F.);
#126=ORIENTED_EDGE('',*,*,#191,.F.);
#127=ORIENTED_EDGE('',*,*,#220,.F.);
#128=ORIENTED_EDGE('',*,*,#199,.F.);
#129=ORIENTED_EDGE('',*,*,#221,.T.);
#130=ORIENTED_EDGE('',*,*,#214,.T.);
#131=ORIENTED_EDGE('',*,*,#222,.T.);
#132=ORIENTED_EDGE('',*,*,#193,.F.);
#133=ORIENTED_EDGE('',*,*,#223,.T.);
#134=ORIENTED_EDGE('',*,*,#212,.T.);
#135=ORIENTED_EDGE('',*,*,#224,.T.);
#136=ORIENTED_EDGE('',*,*,#225,.T.);
#137=ORIENTED_EDGE('',*,*,#195,.F.);
#138=ORIENTED_EDGE('',*,*,#226,.T.);
#139=ORIENTED_EDGE('',*,*,#210,.T.);
#140=ORIENTED_EDGE('',*,*,#197,.F.);
#141=ORIENTED_EDGE('',*,*,#227,.T.);
#142=ORIENTED_EDGE('',*,*,#208,.T.);
#143=ORIENTED_EDGE('',*,*,#228,.T.);
#144=ORIENTED_EDGE('',*,*,#216,.T.);
#145=ORIENTED_EDGE('',*,*,#229,.T.);
#146=ORIENTED_EDGE('',*,*,#204,.F.);
#147=ORIENTED_EDGE('',*,*,#230,.F.);
#148=ORIENTED_EDGE('',*,*,#231,.F.);
#149=ORIENTED_EDGE('',*,*,#205,.F.);
#150=ORIENTED_EDGE('',*,*,#229,.F.);
#151=ORIENTED_EDGE('',*,*,#219,.T.);
#152=ORIENTED_EDGE('',*,*,#232,.T.);
#153=ORIENTED_EDGE('',*,*,#201,.F.);
#154=ORIENTED_EDGE('',*,*,#218,.T.);
#155=ORIENTED_EDGE('',*,*,#233,.T.);
#156=ORIENTED_EDGE('',*,*,#202,.F.);
#157=ORIENTED_EDGE('',*,*,#232,.F.);
#158=ORIENTED_EDGE('',*,*,#230,.T.);
#159=ORIENTED_EDGE('',*,*,#203,.F.);
#160=ORIENTED_EDGE('',*,*,#233,.F.);
#161=ORIENTED_EDGE('',*,*,#217,.T.);
#162=ORIENTED_EDGE('',*,*,#207,.F.);
#163=ORIENTED_EDGE('',*,*,#206,.T.);
#164=ORIENTED_EDGE('',*,*,#194,.F.);
#165=ORIENTED_EDGE('',*,*,#224,.F.);
#166=ORIENTED_EDGE('',*,*,#211,.F.);
#167=ORIENTED_EDGE('',*,*,#226,.F.);
#168=ORIENTED_EDGE('',*,*,#192,.F.);
#169=ORIENTED_EDGE('',*,*,#222,.F.);
#170=ORIENTED_EDGE('',*,*,#213,.F.);
#171=ORIENTED_EDGE('',*,*,#223,.F.);
#172=ORIENTED_EDGE('',*,*,#198,.F.);
#173=ORIENTED_EDGE('',*,*,#228,.F.);
#174=ORIENTED_EDGE('',*,*,#215,.F.);
#175=ORIENTED_EDGE('',*,*,#221,.F.);
#176=ORIENTED_EDGE('',*,*,#196,.F.);
#177=ORIENTED_EDGE('',*,*,#225,.F.);
#178=ORIENTED_EDGE('',*,*,#209,.F.);
#179=ORIENTED_EDGE('',*,*,#227,.F.);
#180=ORIENTED_EDGE('',*,*,#200,.T.);
#181=ORIENTED_EDGE('',*,*,#220,.T.);
#182=ORIENTED_EDGE('',*,*,#190,.T.);
#183=ORIENTED_EDGE('',*,*,#231,.T.);
#184=EDGE_CURVE('',#234,#234,#270,.T.);
#185=EDGE_CURVE('',#235,#235,#271,.T.);
#186=EDGE_CURVE('',#236,#236,#272,.T.);
#187=EDGE_CURVE('',#237,#237,#273,.T.);
#188=EDGE_CURVE('',#238,#238,#274,.T.);
#189=EDGE_CURVE('',#239,#239,#275,.T.);
#190=EDGE_CURVE('',#240,#241,#20,.F.);
#191=EDGE_CURVE('',#240,#242,#21,.T.);
#192=EDGE_CURVE('',#242,#243,#276,.T.);
#193=EDGE_CURVE('',#243,#244,#22,.T.);
#194=EDGE_CURVE('',#244,#245,#277,.T.);
#195=EDGE_CURVE('',#245,#246,#23,.T.);
#196=EDGE_CURVE('',#246,#247,#278,.T.);
#197=EDGE_CURVE('',#247,#248,#24,.T.);
#198=EDGE_CURVE('',#248,#249,#279,.T.);
#199=EDGE_CURVE('',#249,#250,#25,.T.);
#200=EDGE_CURVE('',#251,#250,#26,.T.);
#201=EDGE_CURVE('',#251,#252,#27,.T.);
#202=EDGE_CURVE('',#252,#253,#280,.T.);
#203=EDGE_CURVE('',#253,#254,#28,.T.);
#204=EDGE_CURVE('',#254,#255,#281,.T.);
#205=EDGE_CURVE('',#255,#241,#29,.T.);
#206=EDGE_CURVE('',#256,#256,#282,.T.);
#207=EDGE_CURVE('',#257,#257,#283,.T.);
#208=EDGE_CURVE('',#258,#259,#30,.T.);
#209=EDGE_CURVE('',#258,#260,#284,.F.);
#210=EDGE_CURVE('',#261,#260,#31,.T.);
#211=EDGE_CURVE('',#261,#262,#285,.F.);
#212=EDGE_CURVE('',#263,#262,#32,.T.);
#213=EDGE_CURVE('',#263,#264,#286,.F.);
#214=EDGE_CURVE('',#265,#264,#33,.T.);
#215=EDGE_CURVE('',#265,#259,#287,.F.);
#216=EDGE_CURVE('',#266,#267,#288,.F.);
#217=EDGE_CURVE('',#268,#266,#34,.T.);
#218=EDGE_CURVE('',#269,#268,#289,.F.);
#219=EDGE_CURVE('',#267,#269,#35,.T.);
#220=EDGE_CURVE('',#250,#240,#290,.T.);
#221=EDGE_CURVE('',#249,#265,#36,.T.);
#222=EDGE_CURVE('',#264,#242,#37,.F.);
#223=EDGE_CURVE('',#243,#263,#38,.T.);
#224=EDGE_CURVE('',#262,#244,#39,.F.);
#225=EDGE_CURVE('',#260,#246,#40,.F.);
#226=EDGE_CURVE('',#245,#261,#41,.T.);
#227=EDGE_CURVE('',#247,#258,#42,.T.);
#228=EDGE_CURVE('',#259,#248,#43,.F.);
#229=EDGE_CURVE('',#267,#255,#44,.T.);
#230=EDGE_CURVE('',#266,#254,#45,.T.);
#231=EDGE_CURVE('',#241,#251,#291,.T.);
#232=EDGE_CURVE('',#269,#252,#46,.T.);
#233=EDGE_CURVE('',#268,#253,#47,.T.);
#234=VERTEX_POINT('',#555);
#235=VERTEX_POINT('',#557);
#236=VERTEX_POINT('',#560);
#237=VERTEX_POINT('',#562);
#238=VERTEX_POINT('',#565);
#239=VERTEX_POINT('',#567);
#240=VERTEX_POINT('',#570);
#241=VERTEX_POINT('',#571);
#242=VERTEX_POINT('',#573);
#243=VERTEX_POINT('',#575);
#244=VERTEX_POINT('',#577);
#245=VERTEX_POINT('',#579);
#246=VERTEX_POINT('',#581);
#247=VERTEX_POINT('',#583);
#248=VERTEX_POINT('',#585);
#249=VERTEX_POINT('',#587);
#250=VERTEX_POINT('',#589);
#251=VERTEX_POINT('',#591);
#252=VERTEX_POINT('',#593);
#253=VERTEX_POINT('',#595);
#254=VERTEX_POINT('',#597);
#255=VERTEX_POINT('',#599);
#256=VERTEX_POINT('',#602);
#257=VERTEX_POINT('',#605);
#258=VERTEX_POINT('',#607);
#259=VERTEX_POINT('',#608);
#260=VERTEX_POINT('',#610);
#261=VERTEX_POINT('',#612);
#262=VERTEX_POINT('',#614);
#263=VERTEX_POINT('',#616);
#264=VERTEX_POINT('',#618);
#265=VERTEX_POINT('',#620);
#266=VERTEX_POINT('',#623);
#267=VERTEX_POINT('',#624);
#268=VERTEX_POINT('',#626);
#269=VERTEX_POINT('',#628);
#270=CIRCLE('',#400,2.5);
#271=CIRCLE('',#401,2.5);
#272=CIRCLE('',#403,2.5);
#273=CIRCLE('',#404,2.5);
#274=CIRCLE('',#406,2.5);
#275=CIRCLE('',#407,2.5);
#276=CIRCLE('',#409,5.);
#277=CIRCLE('',#410,5.);
#278=CIRCLE('',#411,5.);
#279=CIRCLE('',#412,5.);
#280=CIRCLE('',#413,7.);
#281=CIRCLE('',#414,7.);
#282=CIRCLE('',#415,2.5);
#283=CIRCLE('',#417,2.5);
#284=CIRCLE('',#418,5.);
#285=CIRCLE('',#419,5.);
#286=CIRCLE('',#420,5.);
#287=CIRCLE('',#421,5.);
#288=CIRCLE('',#422,7.);
#289=CIRCLE('',#423,7.);
#290=CIRCLE('',#425,5.);
#291=CIRCLE('',#431,5.);
#292=EDGE_LOOP('',(#84));
#293=EDGE_LOOP('',(#85));
#294=EDGE_LOOP('',(#86));
#295=EDGE_LOOP('',(#87));
#296=EDGE_LOOP('',(#88));
#297=EDGE_LOOP('',(#89));
#298=EDGE_LOOP('',(#90,#91,#92,#93,#94,#95,#96,#97,#98,#99,#100,#101,#102,
#103,#104,#105));
#299=EDGE_LOOP('',(#106));
#300=EDGE_LOOP('',(#107));
#301=EDGE_LOOP('',(#108));
#302=EDGE_LOOP('',(#109));
#303=EDGE_LOOP('',(#110));
#304=EDGE_LOOP('',(#111));
#305=EDGE_LOOP('',(#112));
#306=EDGE_LOOP('',(#113));
#307=EDGE_LOOP('',(#114,#115,#116,#117,#118,#119,#120,#121));
#308=EDGE_LOOP('',(#122,#123,#124,#125));
#309=EDGE_LOOP('',(#126,#127,#128,#129,#130,#131));
#310=EDGE_LOOP('',(#132,#133,#134,#135));
#311=EDGE_LOOP('',(#136,#137,#138,#139));
#312=EDGE_LOOP('',(#140,#141,#142,#143));
#313=EDGE_LOOP('',(#144,#145,#146,#147));
#314=EDGE_LOOP('',(#148,#149,#150,#151,#152,#153));
#315=EDGE_LOOP('',(#154,#155,#156,#157));
#316=EDGE_LOOP('',(#158,#159,#160,#161));
#317=EDGE_LOOP('',(#162));
#318=EDGE_LOOP('',(#163));
#319=EDGE_LOOP('',(#164,#165,#166,#167));
#320=EDGE_LOOP('',(#168,#169,#170,#171));
#321=EDGE_LOOP('',(#172,#173,#174,#175));
#322=EDGE_LOOP('',(#176,#177,#178,#179));
#323=EDGE_LOOP('',(#180,#181,#182,#183));
#324=FACE_BOUND('',#292,.T.);
#325=FACE_BOUND('',#293,.T.);
#326=FACE_BOUND('',#294,.T.);
#327=FACE_BOUND('',#295,.T.);
#328=FACE_BOUND('',#296,.T.);
#329=FACE_BOUND('',#297,.T.);
#330=FACE_BOUND('',#298,.T.);
#331=FACE_BOUND('',#299,.T.);
#332=FACE_BOUND('',#300,.T.);
#333=FACE_BOUND('',#301,.T.);
#334=FACE_BOUND('',#302,.T.);
#335=FACE_BOUND('',#303,.T.);
#336=FACE_BOUND('',#304,.T.);
#337=FACE_BOUND('',#305,.T.);
#338=FACE_BOUND('',#306,.T.);
#339=FACE_BOUND('',#307,.T.);
#340=FACE_BOUND('',#308,.T.);
#341=FACE_BOUND('',#309,.T.);
#342=FACE_BOUND('',#310,.T.);
#343=FACE_BOUND('',#311,.T.);
#344=FACE_BOUND('',#312,.T.);
#345=FACE_BOUND('',#313,.T.);
#346=FACE_BOUND('',#314,.T.);
#347=FACE_BOUND('',#315,.T.);
#348=FACE_BOUND('',#316,.T.);
#349=FACE_BOUND('',#317,.T.);
#350=FACE_BOUND('',#318,.T.);
#351=FACE_BOUND('',#319,.T.);
#352=FACE_BOUND('',#320,.T.);
#353=FACE_BOUND('',#321,.T.);
#354=FACE_BOUND('',#322,.T.);
#355=FACE_BOUND('',#323,.T.);
#356=CYLINDRICAL_SURFACE('',#399,2.5);
#357=CYLINDRICAL_SURFACE('',#402,2.5);
#358=CYLINDRICAL_SURFACE('',#405,2.5);
#359=CYLINDRICAL_SURFACE('',#429,7.);
#360=CYLINDRICAL_SURFACE('',#432,7.);
#361=CYLINDRICAL_SURFACE('',#434,2.5);
#362=CYLINDRICAL_SURFACE('',#435,5.);
#363=CYLINDRICAL_SURFACE('',#436,5.);
#364=CYLINDRICAL_SURFACE('',#437,5.);
#365=CYLINDRICAL_SURFACE('',#438,5.);
#366=CYLINDRICAL_SURFACE('',#439,5.);
#367=ADVANCED_FACE('',(#324,#325),#356,.F.);
#368=ADVANCED_FACE('',(#326,#327),#357,.F.);
#369=ADVANCED_FACE('',(#328,#329),#358,.F.);
#370=ADVANCED_FACE('',(#330,#331,#332,#333,#334),#76,.T.);
#371=ADVANCED_FACE('',(#335,#336,#337,#338,#339,#340),#77,.F.);
#372=ADVANCED_FACE('',(#341),#78,.F.);
#373=ADVANCED_FACE('',(#342),#79,.F.);
#374=ADVANCED_FACE('',(#343),#80,.F.);
#375=ADVANCED_FACE('',(#344),#81,.F.);
#376=ADVANCED_FACE('',(#345),#359,.F.);
#377=ADVANCED_FACE('',(#346),#82,.T.);
#378=ADVANCED_FACE('',(#347),#360,.F.);
#379=ADVANCED_FACE('',(#348),#83,.T.);
#380=ADVANCED_FACE('',(#349,#350),#361,.F.);
#381=ADVANCED_FACE('',(#351),#362,.T.);
#382=ADVANCED_FACE('',(#352),#363,.T.);
#383=ADVANCED_FACE('',(#353),#364,.T.);
#384=ADVANCED_FACE('',(#354),#365,.T.);
#385=ADVANCED_FACE('',(#355),#366,.F.);
#386=CLOSED_SHELL('',(#367,#368,#369,#370,#371,#372,#373,#374,#375,#376,
#377,#378,#379,#380,#381,#382,#383,#384,#385));
#387=STYLED_ITEM('',(#388),#395);
#388=PRESENTATION_STYLE_ASSIGNMENT((#389));
#389=SURFACE_STYLE_USAGE(.BOTH.,#390);
#390=SURFACE_SIDE_STYLE('',(#391));
#391=SURFACE_STYLE_FILL_AREA(#392);
#392=FILL_AREA_STYLE('',(#393));
#393=FILL_AREA_STYLE_COLOUR('',#394);
#394=COLOUR_RGB('',0.506983280181885,0.531564235687256,0.550000011920929);
#395=MANIFOLD_SOLID_BREP('',#386);
#396=SHAPE_DEFINITION_REPRESENTATION(#664,#397);
#397=SHAPE_REPRESENTATION('axle_block',(#398),#659);
#398=AXIS2_PLACEMENT_3D('',#552,#440,#441);
#399=AXIS2_PLACEMENT_3D('',#553,#442,#443);
#400=AXIS2_PLACEMENT_3D('',#554,#444,#445);
#401=AXIS2_PLACEMENT_3D('',#556,#446,#447);
#402=AXIS2_PLACEMENT_3D('',#558,#448,#449);
#403=AXIS2_PLACEMENT_3D('',#559,#450,#451);
#404=AXIS2_PLACEMENT_3D('',#561,#452,#453);
#405=AXIS2_PLACEMENT_3D('',#563,#454,#455);
#406=AXIS2_PLACEMENT_3D('',#564,#456,#457);
#407=AXIS2_PLACEMENT_3D('',#566,#458,#459);
#408=AXIS2_PLACEMENT_3D('',#568,#460,#461);
#409=AXIS2_PLACEMENT_3D('',#574,#464,#465);
#410=AXIS2_PLACEMENT_3D('',#578,#467,#468);
#411=AXIS2_PLACEMENT_3D('',#582,#470,#471);
#412=AXIS2_PLACEMENT_3D('',#586,#473,#474);
#413=AXIS2_PLACEMENT_3D('',#594,#478,#479);
#414=AXIS2_PLACEMENT_3D('',#598,#481,#482);
#415=AXIS2_PLACEMENT_3D('',#601,#484,#485);
#416=AXIS2_PLACEMENT_3D('',#603,#486,#487);
#417=AXIS2_PLACEMENT_3D('',#604,#488,#489);
#418=AXIS2_PLACEMENT_3D('',#609,#491,#492);
#419=AXIS2_PLACEMENT_3D('',#613,#494,#495);
#420=AXIS2_PLACEMENT_3D('',#617,#497,#498);
#421=AXIS2_PLACEMENT_3D('',#621,#500,#501);
#422=AXIS2_PLACEMENT_3D('',#622,#502,#503);
#423=AXIS2_PLACEMENT_3D('',#627,#505,#506);
#424=AXIS2_PLACEMENT_3D('',#630,#508,#509);
#425=AXIS2_PLACEMENT_3D('',#631,#510,#511);
#426=AXIS2_PLACEMENT_3D('',#634,#514,#515);
#427=AXIS2_PLACEMENT_3D('',#637,#518,#519);
#428=AXIS2_PLACEMENT_3D('',#640,#522,#523);
#429=AXIS2_PLACEMENT_3D('',#643,#526,#527);
#430=AXIS2_PLACEMENT_3D('',#646,#530,#531);
#431=AXIS2_PLACEMENT_3D('',#647,#532,#533);
#432=AXIS2_PLACEMENT_3D('',#649,#535,#536);
#433=AXIS2_PLACEMENT_3D('',#651,#538,#539);
#434=AXIS2_PLACEMENT_3D('',#652,#540,#541);
#435=AXIS2_PLACEMENT_3D('',#653,#542,#543);
#436=AXIS2_PLACEMENT_3D('',#654,#544,#545);
#437=AXIS2_PLACEMENT_3D('',#655,#546,#547);
#438=AXIS2_PLACEMENT_3D('',#656,#548,#549);
#439=AXIS2_PLACEMENT_3D('',#657,#550,#551);
#440=DIRECTION('',(0.,0.,1.));
#441=DIRECTION('',(1.,0.,0.));
#442=DIRECTION('',(0.,-1.,0.));
#443=DIRECTION('',(0.,0.,-1.));
#444=DIRECTION('',(0.,-1.,0.));
#445=DIRECTION('',(0.,0.,-1.));
#446=DIRECTION('',(0.,-1.,0.));
#447=DIRECTION('',(1.,0.,0.));
#448=DIRECTION('',(0.,-1.,0.));
#449=DIRECTION('',(0.,0.,-1.));
#450=DIRECTION('',(0.,-1.,0.));
#451=DIRECTION('',(0.,0.,-1.));
#452=DIRECTION('',(0.,-1.,0.));
#453=DIRECTION('',(1.,0.,0.));
#454=DIRECTION('',(0.,-1.,0.));
#455=DIRECTION('',(0.,0.,-1.));
#456=DIRECTION('',(0.,-1.,0.));
#457=DIRECTION('',(0.,0.,-1.));
#458=DIRECTION('',(0.,-1.,0.));
#459=DIRECTION('',(1.,0.,0.));
#460=DIRECTION('',(0.,-1.,0.));
#461=DIRECTION('',(0.,0.,-1.));
#462=DIRECTION('',(1.,0.,0.));
#463=DIRECTION('',(0.,0.,1.));
#464=DIRECTION('',(0.,-1.,0.));
#465=DIRECTION('',(0.,0.,-1.));
#466=DIRECTION('',(-1.,0.,0.));
#467=DIRECTION('',(0.,-1.,0.));
#468=DIRECTION('',(0.,0.,-1.));
#469=DIRECTION('',(0.,0.,-1.));
#470=DIRECTION('',(0.,-1.,0.));
#471=DIRECTION('',(0.,0.,-1.));
#472=DIRECTION('',(1.,0.,0.));
#473=DIRECTION('',(0.,-1.,0.));
#474=DIRECTION('',(0.,0.,-1.));
#475=DIRECTION('',(0.,0.,1.));
#476=DIRECTION('',(1.,0.,0.));
#477=DIRECTION('',(0.,0.,-1.));
#478=DIRECTION('',(0.,1.,0.));
#479=DIRECTION('',(1.,0.,0.));
#480=DIRECTION('',(-3.54098946747531E-16,0.,1.));
#481=DIRECTION('',(0.,1.,0.));
#482=DIRECTION('',(1.,0.,0.));
#483=DIRECTION('',(0.,0.,-1.));
#484=DIRECTION('',(0.,-1.,0.));
#485=DIRECTION('',(1.,0.,0.));
#486=DIRECTION('',(0.,-1.,0.));
#487=DIRECTION('',(0.,0.,-1.));
#488=DIRECTION('',(0.,-1.,0.));
#489=DIRECTION('',(0.,0.,-1.));
#490=DIRECTION('',(1.,0.,0.));
#491=DIRECTION('',(0.,-1.,0.));
#492=DIRECTION('',(0.,0.,-1.));
#493=DIRECTION('',(0.,0.,-1.));
#494=DIRECTION('',(0.,-1.,0.));
#495=DIRECTION('',(0.,0.,-1.));
#496=DIRECTION('',(-1.,0.,0.));
#497=DIRECTION('',(0.,-1.,0.));
#498=DIRECTION('',(0.,0.,-1.));
#499=DIRECTION('',(0.,0.,1.));
#500=DIRECTION('',(0.,-1.,0.));
#501=DIRECTION('',(0.,0.,-1.));
#502=DIRECTION('',(0.,-1.,0.));
#503=DIRECTION('',(0.,0.,-1.));
#504=DIRECTION('',(-3.54098946747531E-16,0.,1.));
#505=DIRECTION('',(0.,-1.,0.));
#506=DIRECTION('',(0.,0.,-1.));
#507=DIRECTION('',(0.,0.,-1.));
#508=DIRECTION('',(-1.,0.,0.));
#509=DIRECTION('',(0.,0.,1.));
#510=DIRECTION('',(1.,0.,0.));
#511=DIRECTION('',(0.,1.,0.));
#512=DIRECTION('',(0.,1.,0.));
#513=DIRECTION('',(0.,1.,0.));
#514=DIRECTION('',(0.,0.,-1.));
#515=DIRECTION('',(-1.,0.,0.));
#516=DIRECTION('',(0.,1.,0.));
#517=DIRECTION('',(0.,1.,0.));
#518=DIRECTION('',(1.,0.,0.));
#519=DIRECTION('',(0.,0.,-1.));
#520=DIRECTION('',(0.,1.,0.));
#521=DIRECTION('',(0.,1.,0.));
#522=DIRECTION('',(0.,0.,1.));
#523=DIRECTION('',(1.,0.,0.));
#524=DIRECTION('',(0.,1.,0.));
#525=DIRECTION('',(0.,1.,0.));
#526=DIRECTION('',(0.,-1.,0.));
#527=DIRECTION('',(0.,0.,-1.));
#528=DIRECTION('',(0.,-1.,0.));
#529=DIRECTION('',(0.,-1.,0.));
#530=DIRECTION('',(-1.,0.,0.));
#531=DIRECTION('',(0.,0.,1.));
#532=DIRECTION('',(-1.,0.,0.));
#533=DIRECTION('',(0.,0.,1.));
#534=DIRECTION('',(0.,-1.,0.));
#535=DIRECTION('',(0.,-1.,0.));
#536=DIRECTION('',(0.,0.,-1.));
#537=DIRECTION('',(0.,-1.,0.));
#538=DIRECTION('',(1.,0.,3.54098946747531E-16));
#539=DIRECTION('',(3.54098946747531E-16,0.,-1.));
#540=DIRECTION('',(0.,-1.,0.));
#541=DIRECTION('',(0.,0.,-1.));
#542=DIRECTION('',(0.,1.,0.));
#543=DIRECTION('',(0.,0.,1.));
#544=DIRECTION('',(0.,1.,0.));
#545=DIRECTION('',(0.,0.,1.));
#546=DIRECTION('',(0.,1.,0.));
#547=DIRECTION('',(0.,0.,1.));
#548=DIRECTION('',(0.,1.,0.));
#549=DIRECTION('',(0.,0.,1.));
#550=DIRECTION('',(1.,0.,0.));
#551=DIRECTION('',(0.,0.,-1.));
#552=CARTESIAN_POINT('',(0.,0.,0.));
#553=CARTESIAN_POINT('',(35.,89.8989383158384,-10.));
#554=CARTESIAN_POINT('',(35.,0.,-10.));
#555=CARTESIAN_POINT('',(35.,0.,-12.5));
#556=CARTESIAN_POINT('',(35.,-9.,-10.));
#557=CARTESIAN_POINT('',(37.5,-9.,-10.));
#558=CARTESIAN_POINT('',(35.,89.8989383158384,10.));
#559=CARTESIAN_POINT('',(35.,0.,10.));
#560=CARTESIAN_POINT('',(35.,0.,7.5));
#561=CARTESIAN_POINT('',(35.,-9.,10.));
#562=CARTESIAN_POINT('',(37.5,-9.,10.));
#563=CARTESIAN_POINT('',(-35.,89.8989383158384,-10.));
#564=CARTESIAN_POINT('',(-35.,0.,-10.));
#565=CARTESIAN_POINT('',(-35.,0.,-12.5));
#566=CARTESIAN_POINT('',(-35.,-9.,-10.));
#567=CARTESIAN_POINT('',(-32.5,-9.,-10.));
#568=CARTESIAN_POINT('',(0.,-9.,0.));
#569=CARTESIAN_POINT('',(-54.7797574661314,-9.,4.58257569495584));
#570=CARTESIAN_POINT('',(45.,-9.,4.58257569495584));
#571=CARTESIAN_POINT('',(5.,-9.,4.58257569495584));
#572=CARTESIAN_POINT('',(45.,-9.,-20.));
#573=CARTESIAN_POINT('',(45.,-9.,15.));
#574=CARTESIAN_POINT('',(40.,-9.,15.));
#575=CARTESIAN_POINT('',(40.,-9.,20.));
#576=CARTESIAN_POINT('',(45.,-9.,20.));
#577=CARTESIAN_POINT('',(-40.,-9.,20.));
#578=CARTESIAN_POINT('',(-40.,-9.,15.));
#579=CARTESIAN_POINT('',(-45.,-9.,15.));
#580=CARTESIAN_POINT('',(-45.,-9.,20.));
#581=CARTESIAN_POINT('',(-45.,-9.,-15.));
#582=CARTESIAN_POINT('',(-40.,-9.,-15.));
#583=CARTESIAN_POINT('',(-40.,-9.,-20.));
#584=CARTESIAN_POINT('',(-45.,-9.,-20.));
#585=CARTESIAN_POINT('',(40.,-9.,-20.));
#586=CARTESIAN_POINT('',(40.,-9.,-15.));
#587=CARTESIAN_POINT('',(45.,-9.,-15.));
#588=CARTESIAN_POINT('',(45.,-9.,-20.));
#589=CARTESIAN_POINT('',(45.,-9.,-4.58257569495584));
#590=CARTESIAN_POINT('',(-54.7797574661314,-9.,-4.58257569495584));
#591=CARTESIAN_POINT('',(5.,-9.,-4.58257569495584));
#592=CARTESIAN_POINT('',(5.,-9.,4.89897948556635));
#593=CARTESIAN_POINT('',(5.,-9.,-4.89897948556635));
#594=CARTESIAN_POINT('',(0.,-9.,0.));
#595=CARTESIAN_POINT('',(-5.00000000000001,-9.,-4.89897948556635));
#596=CARTESIAN_POINT('',(-5.,-9.,-4.89897948556635));
#597=CARTESIAN_POINT('',(-5.00000000000001,-9.,4.89897948556635));
#598=CARTESIAN_POINT('',(0.,-9.,0.));
#599=CARTESIAN_POINT('',(5.,-9.,4.89897948556635));
#600=CARTESIAN_POINT('',(5.,-9.,4.89897948556635));
#601=CARTESIAN_POINT('',(-35.,-9.,10.));
#602=CARTESIAN_POINT('',(-32.5,-9.,10.));
#603=CARTESIAN_POINT('',(0.,0.,0.));
#604=CARTESIAN_POINT('',(-35.,0.,10.));
#605=CARTESIAN_POINT('',(-35.,0.,7.5));
#606=CARTESIAN_POINT('',(-45.,0.,-20.));
#607=CARTESIAN_POINT('',(-40.,0.,-20.));
#608=CARTESIAN_POINT('',(40.,0.,-20.));
#609=CARTESIAN_POINT('',(-40.,0.,-15.));
#610=CARTESIAN_POINT('',(-45.,0.,-15.));
#611=CARTESIAN_POINT('',(-45.,0.,20.));
#612=CARTESIAN_POINT('',(-45.,0.,15.));
#613=CARTESIAN_POINT('',(-40.,0.,15.));
#614=CARTESIAN_POINT('',(-40.,0.,20.));
#615=CARTESIAN_POINT('',(45.,0.,20.));
#616=CARTESIAN_POINT('',(40.,0.,20.));
#617=CARTESIAN_POINT('',(40.,0.,15.));
#618=CARTESIAN_POINT('',(45.,0.,15.));
#619=CARTESIAN_POINT('',(45.,0.,-20.));
#620=CARTESIAN_POINT('',(45.,0.,-15.));
#621=CARTESIAN_POINT('',(40.,0.,-15.));
#622=CARTESIAN_POINT('',(0.,0.,0.));
#623=CARTESIAN_POINT('',(-5.00000000000001,0.,4.89897948556635));
#624=CARTESIAN_POINT('',(5.,0.,4.89897948556635));
#625=CARTESIAN_POINT('',(-5.,0.,-1.77049473373766E-15));
#626=CARTESIAN_POINT('',(-5.00000000000001,0.,-4.89897948556635));
#627=CARTESIAN_POINT('',(0.,0.,0.));
#628=CARTESIAN_POINT('',(5.,0.,-4.89897948556635));
#629=CARTESIAN_POINT('',(5.,0.,0.));
#630=CARTESIAN_POINT('',(45.,-9.,-20.));
#631=CARTESIAN_POINT('',(45.,-11.,-1.73472347597681E-15));
#632=CARTESIAN_POINT('',(45.,-9.,-15.));
#633=CARTESIAN_POINT('',(45.,-9.,15.));
#634=CARTESIAN_POINT('',(45.,-9.,20.));
#635=CARTESIAN_POINT('',(40.,-9.,20.));
#636=CARTESIAN_POINT('',(-40.,-9.,20.));
#637=CARTESIAN_POINT('',(-45.,-9.,20.));
#638=CARTESIAN_POINT('',(-45.,-9.,-15.));
#639=CARTESIAN_POINT('',(-45.,-9.,15.));
#640=CARTESIAN_POINT('',(-45.,-9.,-20.));
#641=CARTESIAN_POINT('',(-40.,-9.,-20.));
#642=CARTESIAN_POINT('',(40.,-9.,-20.));
#643=CARTESIAN_POINT('',(0.,89.8989383158384,0.));
#644=CARTESIAN_POINT('',(5.,89.8989383158384,4.89897948556635));
#645=CARTESIAN_POINT('',(-5.00000000000001,89.8989383158384,4.89897948556635));
#646=CARTESIAN_POINT('',(5.,89.8989383158384,4.89897948556635));
#647=CARTESIAN_POINT('',(5.,-11.,-1.73472347597681E-15));
#648=CARTESIAN_POINT('',(5.,89.8989383158384,-4.89897948556635));
#649=CARTESIAN_POINT('',(0.,89.8989383158384,0.));
#650=CARTESIAN_POINT('',(-5.00000000000001,89.8989383158384,-4.89897948556635));
#651=CARTESIAN_POINT('',(-5.,89.8989383158384,-4.89897948556635));
#652=CARTESIAN_POINT('',(-35.,89.8989383158384,10.));
#653=CARTESIAN_POINT('',(-40.,-9.,15.));
#654=CARTESIAN_POINT('',(40.,-9.,15.));
#655=CARTESIAN_POINT('',(40.,-9.,-15.));
#656=CARTESIAN_POINT('',(-40.,-9.,-15.));
#657=CARTESIAN_POINT('',(-54.7797574661314,-11.,-1.73472347597681E-15));
#658=MECHANICAL_DESIGN_GEOMETRIC_PRESENTATION_REPRESENTATION('',(#387),
#659);
#659=(
GEOMETRIC_REPRESENTATION_CONTEXT(3)
GLOBAL_UNCERTAINTY_ASSIGNED_CONTEXT((#660))
GLOBAL_UNIT_ASSIGNED_CONTEXT((#663,#662,#661))
REPRESENTATION_CONTEXT('axle_block','TOP_LEVEL_ASSEMBLY_PART')
);
#660=UNCERTAINTY_MEASURE_WITH_UNIT(LENGTH_MEASURE(0.005),#663,
'DISTANCE_ACCURACY_VALUE','Maximum Tolerance applied to model');
#661=(
NAMED_UNIT(*)
SI_UNIT($,.STERADIAN.)
SOLID_ANGLE_UNIT()
);
#662=(
NAMED_UNIT(*)
PLANE_ANGLE_UNIT()
SI_UNIT($,.RADIAN.)
);
#663=(
LENGTH_UNIT()
NAMED_UNIT(*)
SI_UNIT(.MILLI.,.METRE.)
);
#664=PRODUCT_DEFINITION_SHAPE('','',#665);
#665=PRODUCT_DEFINITION('','',#667,#666);
#666=PRODUCT_DEFINITION_CONTEXT('',#673,'design');
#667=PRODUCT_DEFINITION_FORMATION_WITH_SPECIFIED_SOURCE('','',#669,
 .NOT_KNOWN.);
#668=PRODUCT_RELATED_PRODUCT_CATEGORY('','',(#669));
#669=PRODUCT('axle_block','axle_block','axle_block',(#671));
#670=PRODUCT_CATEGORY('','');
#671=PRODUCT_CONTEXT('',#673,'mechanical');
#672=APPLICATION_PROTOCOL_DEFINITION('international standard',
'automotive_design',2010,#673);
#673=APPLICATION_CONTEXT(
'core data for automotive mechanical design processes');
ENDSEC;
END-ISO-10303-21;
