ISO-10303-21;
HEADER;
FILE_DESCRIPTION (( 'STEP AP203' ),
    '1' );
FILE_NAME ('fixation M6 rond.STEP',
    '2024-08-28T08:52:53',
    ( '' ),
    ( '' ),
    'SwSTEP 2.0',
    'SolidWorks 2023',
    '' );
FILE_SCHEMA (( 'CONFIG_CONTROL_DESIGN' ));
ENDSEC;

DATA;
#1 = LOCAL_TIME ( 10, 52, 53.00000000000000000, #180 ) ;
#2 = VERTEX_POINT ( 'NONE', #110 ) ;
#3 = CC_DESIGN_PERSON_AND_ORGANIZATION_ASSIGNMENT ( #192, #274, ( #7 ) ) ;
#4 = CIRCLE ( 'NONE', #187, 2.500000000000000000 ) ;
#5 = ADVANCED_FACE ( 'NONE', ( #29 ), #193, .F. ) ;
#6 = ORIENTED_EDGE ( 'NONE', *, *, #302, .F. ) ;
#7 = PRODUCT ( 'fixation M6 rond', 'fixation M6 rond', '', ( #141 ) ) ;
#8 = ORIENTED_EDGE ( 'NONE', *, *, #63, .F. ) ;
#9 = CARTESIAN_POINT ( 'NONE',  ( -6.000000000000000888, 0.000000000000000000, 0.000000000000000000 ) ) ;
#10 = EDGE_LOOP ( 'NONE', ( #314, #265 ) ) ;
#11 = DIRECTION ( 'NONE',  ( 0.000000000000000000, 0.000000000000000000, 1.000000000000000000 ) ) ;
#12 = CC_DESIGN_APPROVAL ( #253, ( #20 ) ) ;
#13 = FACE_OUTER_BOUND ( 'NONE', #148, .T. ) ;
#14 = FACE_OUTER_BOUND ( 'NONE', #33, .T. ) ;
#15 = LINE ( 'NONE', #176, #25 ) ;
#16 = CARTESIAN_POINT ( 'NONE',  ( -6.000000000000000888, 0.000000000000000000, 1.000000000000000000 ) ) ;
#17 = PLANE ( 'NONE',  #38 ) ;
#18 = DIRECTION ( 'NONE',  ( 0.000000000000000000, 0.000000000000000000, 1.000000000000000000 ) ) ;
#19 = AXIS2_PLACEMENT_3D ( 'NONE', #87, #23, #36 ) ;
#20 = PRODUCT_DEFINITION_FORMATION_WITH_SPECIFIED_SOURCE ( 'ANY', '', #7, .NOT_KNOWN. ) ;
#21 = DIRECTION ( 'NONE',  ( 1.000000000000000000, 0.000000000000000000, -0.000000000000000000 ) ) ;
#22 = APPROVAL_DATE_TIME ( #182, #253 ) ;
#23 = DIRECTION ( 'NONE',  ( 0.000000000000000000, 0.000000000000000000, 1.000000000000000000 ) ) ;
#24 = EDGE_CURVE ( 'NONE', #136, #251, #71, .T. ) ;
#25 = VECTOR ( 'NONE', #273, 1000.000000000000000 ) ;
#26 = PERSON_AND_ORGANIZATION ( #329, #145 ) ;
#27 = ORIENTED_EDGE ( 'NONE', *, *, #89, .F. ) ;
#28 = VERTEX_POINT ( 'NONE', #81 ) ;
#29 = FACE_OUTER_BOUND ( 'NONE', #153, .T. ) ;
#30 = ADVANCED_FACE ( 'NONE', ( #190, #288 ), #53, .T. ) ;
#31 = ORIENTED_EDGE ( 'NONE', *, *, #188, .F. ) ;
#32 = ADVANCED_FACE ( 'NONE', ( #13 ), #219, .F. ) ;
#33 = EDGE_LOOP ( 'NONE', ( #186, #240, #34, #159 ) ) ;
#34 = ORIENTED_EDGE ( 'NONE', *, *, #222, .T. ) ;
#35 = VERTEX_POINT ( 'NONE', #40 ) ;
#36 = DIRECTION ( 'NONE',  ( 1.000000000000000000, 0.000000000000000000, 0.000000000000000000 ) ) ;
#37 = PERSON_AND_ORGANIZATION ( #329, #145 ) ;
#38 = AXIS2_PLACEMENT_3D ( 'NONE', #270, #202, #91 ) ;
#39 = DIRECTION ( 'NONE',  ( 0.000000000000000000, 0.000000000000000000, 1.000000000000000000 ) ) ;
#40 = CARTESIAN_POINT ( 'NONE',  ( 2.500000000000000000, 0.000000000000000000, 11.00000000000000000 ) ) ;
#41 = CC_DESIGN_PERSON_AND_ORGANIZATION_ASSIGNMENT ( #37, #301, ( #100 ) ) ;
#42 = APPROVAL_ROLE ( '' ) ;
#43 = LINE ( 'NONE', #292, #306 ) ;
#44 = CC_DESIGN_SECURITY_CLASSIFICATION ( #205, ( #20 ) ) ;
#45 = FACE_BOUND ( 'NONE', #156, .T. ) ;
#46 = CALENDAR_DATE ( 2024, 28, 8 ) ;
#47 = ORIENTED_EDGE ( 'NONE', *, *, #222, .F. ) ;
#48 = APPROVAL_PERSON_ORGANIZATION ( #86, #158, #42 ) ;
#49 = VERTEX_POINT ( 'NONE', #322 ) ;
#50 = ORIENTED_EDGE ( 'NONE', *, *, #212, .F. ) ;
#51 = EDGE_CURVE ( 'NONE', #284, #28, #230, .T. ) ;
#52 = ORIENTED_EDGE ( 'NONE', *, *, #88, .F. ) ;
#53 = PLANE ( 'NONE',  #282 ) ;
#54 = ORIENTED_EDGE ( 'NONE', *, *, #221, .F. ) ;
#55 = AXIS2_PLACEMENT_3D ( 'NONE', #324, #73, #96 ) ;
#56 = CARTESIAN_POINT ( 'NONE',  ( 5.500000000000000000, 6.735557395310442023E-16, 11.00000000000000000 ) ) ;
#57 = ORIENTED_EDGE ( 'NONE', *, *, #181, .T. ) ;
#58 = APPROVAL_STATUS ( 'not_yet_approved' ) ;
#59 = CARTESIAN_POINT ( 'NONE',  ( 6.000000000000000888, 7.347880794884120722E-16, 1.000000000000000000 ) ) ;
#60 = DIRECTION ( 'NONE',  ( 0.000000000000000000, 0.000000000000000000, 1.000000000000000000 ) ) ;
#61 = AXIS2_PLACEMENT_3D ( 'NONE', #115, #60, #144 ) ;
#62 = AXIS2_PLACEMENT_3D ( 'NONE', #321, #117, #69 ) ;
#63 = EDGE_CURVE ( 'NONE', #251, #256, #295, .T. ) ;
#64 = CC_DESIGN_APPROVAL ( #158, ( #100 ) ) ;
#65 = ADVANCED_FACE ( 'NONE', ( #146 ), #173, .T. ) ;
#66 = DIRECTION ( 'NONE',  ( 0.000000000000000000, 0.000000000000000000, 1.000000000000000000 ) ) ;
#67 = CARTESIAN_POINT ( 'NONE',  ( -2.500000000000000000, 3.061616997868383141E-16, 0.000000000000000000 ) ) ;
#68 = DIRECTION ( 'NONE',  ( 1.000000000000000000, 0.000000000000000000, 0.000000000000000000 ) ) ;
#69 = DIRECTION ( 'NONE',  ( -1.000000000000000000, 0.000000000000000000, 0.000000000000000000 ) ) ;
#70 = APPROVAL_STATUS ( 'not_yet_approved' ) ;
#71 = CIRCLE ( 'NONE', #299, 2.500000000000000000 ) ;
#72 = CIRCLE ( 'NONE', #213, 5.500000000000000000 ) ;
#73 = DIRECTION ( 'NONE',  ( -0.000000000000000000, -0.000000000000000000, -1.000000000000000000 ) ) ;
#74 = APPROVAL_ROLE ( '' ) ;
#75 = PERSON_AND_ORGANIZATION ( #329, #145 ) ;
#76 = CC_DESIGN_PERSON_AND_ORGANIZATION_ASSIGNMENT ( #277, #328, ( #205 ) ) ;
#77 = CLOSED_SHELL ( 'NONE', ( #5, #281, #327, #189, #30, #128, #65, #133, #32 ) ) ;
#78 = AXIS2_PLACEMENT_3D ( 'NONE', #239, #198, #196 ) ;
#79 = ORIENTED_EDGE ( 'NONE', *, *, #51, .T. ) ;
#80 = AXIS2_PLACEMENT_3D ( 'NONE', #111, #140, #316 ) ;
#81 = CARTESIAN_POINT ( 'NONE',  ( 6.000000000000000888, 7.347880794884120722E-16, 0.000000000000000000 ) ) ;
#82 = ORIENTED_EDGE ( 'NONE', *, *, #24, .F. ) ;
#83 = COORDINATED_UNIVERSAL_TIME_OFFSET ( 1, 0, .AHEAD. ) ;
#84 = EDGE_LOOP ( 'NONE', ( #31, #54, #134, #79 ) ) ;
#85 = CARTESIAN_POINT ( 'NONE',  ( 0.000000000000000000, 0.000000000000000000, 1.000000000000000000 ) ) ;
#86 = PERSON_AND_ORGANIZATION ( #329, #145 ) ;
#87 = CARTESIAN_POINT ( 'NONE',  ( 0.000000000000000000, 0.000000000000000000, 0.000000000000000000 ) ) ;
#88 = EDGE_CURVE ( 'NONE', #233, #284, #15, .T. ) ;
#89 = EDGE_CURVE ( 'NONE', #136, #35, #94, .T. ) ;
#90 = CARTESIAN_POINT ( 'NONE',  ( 0.000000000000000000, 0.000000000000000000, 1.000000000000000000 ) ) ;
#91 = DIRECTION ( 'NONE',  ( 1.000000000000000000, 0.000000000000000000, -0.000000000000000000 ) ) ;
#92 = CIRCLE ( 'NONE', #257, 6.000000000000000888 ) ;
#93 = CARTESIAN_POINT ( 'NONE',  ( 0.000000000000000000, 0.000000000000000000, 1.000000000000000000 ) ) ;
#94 = LINE ( 'NONE', #138, #183 ) ;
#95 = FACE_OUTER_BOUND ( 'NONE', #237, .T. ) ;
#96 = DIRECTION ( 'NONE',  ( -1.000000000000000000, 0.000000000000000000, 0.000000000000000000 ) ) ;
#97 = APPLICATION_CONTEXT ( 'configuration controlled 3d designs of mechanical parts and assemblies' ) ;
#98 = SECURITY_CLASSIFICATION_LEVEL ( 'unclassified' ) ;
#99 = DATE_TIME_ROLE ( 'classification_date' ) ;
#100 = PRODUCT_DEFINITION ( 'UNKNOWN', '', #20, #223 ) ;
#101 = EDGE_CURVE ( 'NONE', #49, #108, #261, .T. ) ;
#102 = ORIENTED_EDGE ( 'NONE', *, *, #51, .F. ) ;
#103 = DIRECTION ( 'NONE',  ( 0.000000000000000000, 0.000000000000000000, 1.000000000000000000 ) ) ;
#104 = CIRCLE ( 'NONE', #320, 5.500000000000000000 ) ;
#105 = APPROVAL_PERSON_ORGANIZATION ( #280, #107, #207 ) ;
#106 = ORIENTED_EDGE ( 'NONE', *, *, #151, .T. ) ;
#107 = APPROVAL ( #70, 'UNSPECIFIED' ) ;
#108 = VERTEX_POINT ( 'NONE', #195 ) ;
#109 = CYLINDRICAL_SURFACE ( 'NONE', #300, 6.000000000000000888 ) ;
#110 = CARTESIAN_POINT ( 'NONE',  ( -5.500000000000000000, 0.000000000000000000, 11.00000000000000000 ) ) ;
#111 = CARTESIAN_POINT ( 'NONE',  ( 0.000000000000000000, 0.000000000000000000, -9.000000000000001776 ) ) ;
#112 = EDGE_CURVE ( 'NONE', #2, #49, #43, .T. ) ;
#113 = APPLICATION_CONTEXT ( 'configuration controlled 3d designs of mechanical parts and assemblies' ) ;
#114 = CARTESIAN_POINT ( 'NONE',  ( 5.500000000000000000, 6.735557395310442023E-16, 11.00000000000000000 ) ) ;
#115 = CARTESIAN_POINT ( 'NONE',  ( 0.000000000000000000, 0.000000000000000000, 0.000000000000000000 ) ) ;
#116 =( NAMED_UNIT ( * ) PLANE_ANGLE_UNIT ( ) SI_UNIT ( $, .RADIAN. ) );
#117 = DIRECTION ( 'NONE',  ( -0.000000000000000000, -0.000000000000000000, -1.000000000000000000 ) ) ;
#118 = ADVANCED_BREP_SHAPE_REPRESENTATION ( 'fixation M6 rond', ( #211, #177 ), #171 ) ;
#119 = AXIS2_PLACEMENT_3D ( 'NONE', #85, #248, #168 ) ;
#120 = APPROVAL_PERSON_ORGANIZATION ( #75, #253, #74 ) ;
#121 = DATE_AND_TIME ( #247, #262 ) ;
#122 = DIRECTION ( 'NONE',  ( 1.000000000000000000, 0.000000000000000000, 0.000000000000000000 ) ) ;
#123 = CARTESIAN_POINT ( 'NONE',  ( 0.000000000000000000, 0.000000000000000000, 11.00000000000000000 ) ) ;
#124 = COORDINATED_UNIVERSAL_TIME_OFFSET ( 1, 0, .AHEAD. ) ;
#125 = VECTOR ( 'NONE', #244, 1000.000000000000000 ) ;
#126 = CIRCLE ( 'NONE', #185, 2.500000000000000000 ) ;
#127 = EDGE_CURVE ( 'NONE', #251, #136, #162, .T. ) ;
#128 = ADVANCED_FACE ( 'NONE', ( #45, #95 ), #242, .F. ) ;
#129 = DIRECTION ( 'NONE',  ( 1.000000000000000000, 0.000000000000000000, 0.000000000000000000 ) ) ;
#130 = ORIENTED_EDGE ( 'NONE', *, *, #24, .T. ) ;
#131 = CARTESIAN_POINT ( 'NONE',  ( 0.000000000000000000, 0.000000000000000000, 1.000000000000000000 ) ) ;
#132 = VECTOR ( 'NONE', #267, 1000.000000000000000 ) ;
#133 = ADVANCED_FACE ( 'NONE', ( #246, #318 ), #17, .T. ) ;
#134 = ORIENTED_EDGE ( 'NONE', *, *, #88, .T. ) ;
#135 = CARTESIAN_POINT ( 'NONE',  ( -2.500000000000000000, 3.061616997868383141E-16, 11.00000000000000000 ) ) ;
#136 = VERTEX_POINT ( 'NONE', #294 ) ;
#137 = CYLINDRICAL_SURFACE ( 'NONE', #78, 5.500000000000000000 ) ;
#138 = CARTESIAN_POINT ( 'NONE',  ( 2.500000000000000000, 0.000000000000000000, -9.000000000000001776 ) ) ;
#139 = CIRCLE ( 'NONE', #231, 6.000000000000000888 ) ;
#140 = DIRECTION ( 'NONE',  ( -0.000000000000000000, -0.000000000000000000, 1.000000000000000000 ) ) ;
#141 = MECHANICAL_CONTEXT ( 'NONE', #113, 'mechanical' ) ;
#142 = CARTESIAN_POINT ( 'NONE',  ( -2.500000000000000000, 3.061616997868383141E-16, -9.000000000000001776 ) ) ;
#143 = DIRECTION ( 'NONE',  ( 1.000000000000000000, 0.000000000000000000, 0.000000000000000000 ) ) ;
#144 = DIRECTION ( 'NONE',  ( 1.000000000000000000, 0.000000000000000000, 0.000000000000000000 ) ) ;
#145 = ORGANIZATION ( 'UNSPECIFIED', 'UNSPECIFIED', '' ) ;
#146 = FACE_OUTER_BOUND ( 'NONE', #263, .T. ) ;
#147 = PERSON_AND_ORGANIZATION_ROLE ( 'creator' ) ;
#148 = EDGE_LOOP ( 'NONE', ( #8, #82, #287, #289 ) ) ;
#149 = CALENDAR_DATE ( 2024, 28, 8 ) ;
#150 = EDGE_CURVE ( 'NONE', #308, #2, #72, .T. ) ;
#151 = EDGE_CURVE ( 'NONE', #258, #233, #92, .T. ) ;
#152 = AXIS2_PLACEMENT_3D ( 'NONE', #312, #236, #129 ) ;
#153 = EDGE_LOOP ( 'NONE', ( #210, #255, #215, #27 ) ) ;
#154 = ORIENTED_EDGE ( 'NONE', *, *, #127, .T. ) ;
#155 = LOCAL_TIME ( 10, 52, 53.00000000000000000, #178 ) ;
#156 = EDGE_LOOP ( 'NONE', ( #130, #154 ) ) ;
#157 = EDGE_LOOP ( 'NONE', ( #163, #47 ) ) ;
#158 = APPROVAL ( #58, 'UNSPECIFIED' ) ;
#159 = ORIENTED_EDGE ( 'NONE', *, *, #112, .F. ) ;
#160 = EDGE_CURVE ( 'NONE', #2, #308, #286, .T. ) ;
#161 = PRODUCT_DEFINITION_SHAPE ( 'NONE', 'NONE',  #100 ) ;
#162 = CIRCLE ( 'NONE', #19, 2.500000000000000000 ) ;
#163 = ORIENTED_EDGE ( 'NONE', *, *, #101, .F. ) ;
#164 = VECTOR ( 'NONE', #241, 1000.000000000000000 ) ;
#165 =( NAMED_UNIT ( * ) SI_UNIT ( $, .STERADIAN. ) SOLID_ANGLE_UNIT ( ) );
#166 = ORIENTED_EDGE ( 'NONE', *, *, #160, .F. ) ;
#167 = APPROVAL_DATE_TIME ( #121, #158 ) ;
#168 = DIRECTION ( 'NONE',  ( 1.000000000000000000, 0.000000000000000000, 0.000000000000000000 ) ) ;
#169 = DIRECTION ( 'NONE',  ( 0.000000000000000000, 0.000000000000000000, 1.000000000000000000 ) ) ;
#170 = CARTESIAN_POINT ( 'NONE',  ( 0.000000000000000000, 0.000000000000000000, 1.000000000000000000 ) ) ;
#171 =( GEOMETRIC_REPRESENTATION_CONTEXT ( 3 ) GLOBAL_UNCERTAINTY_ASSIGNED_CONTEXT ( ( #276 ) ) GLOBAL_UNIT_ASSIGNED_CONTEXT ( ( #264, #116, #165 ) ) REPRESENTATION_CONTEXT ( 'NONE', 'WORKASPACE' ) );
#172 = DIRECTION ( 'NONE',  ( 0.000000000000000000, 0.000000000000000000, 1.000000000000000000 ) ) ;
#173 = CYLINDRICAL_SURFACE ( 'NONE', #62, 5.500000000000000000 ) ;
#174 = DIRECTION ( 'NONE',  ( 0.000000000000000000, 0.000000000000000000, 1.000000000000000000 ) ) ;
#175 = APPROVAL_STATUS ( 'not_yet_approved' ) ;
#176 = CARTESIAN_POINT ( 'NONE',  ( -6.000000000000000888, 0.000000000000000000, 1.000000000000000000 ) ) ;
#177 = AXIS2_PLACEMENT_3D ( 'NONE', #272, #268, #224 ) ;
#178 = COORDINATED_UNIVERSAL_TIME_OFFSET ( 1, 0, .AHEAD. ) ;
#179 = CYLINDRICAL_SURFACE ( 'NONE', #55, 6.000000000000000888 ) ;
#180 = COORDINATED_UNIVERSAL_TIME_OFFSET ( 1, 0, .AHEAD. ) ;
#181 = EDGE_CURVE ( 'NONE', #28, #284, #139, .T. ) ;
#182 = DATE_AND_TIME ( #279, #155 ) ;
#183 = VECTOR ( 'NONE', #275, 1000.000000000000000 ) ;
#184 = DATE_AND_TIME ( #149, #307 ) ;
#185 = AXIS2_PLACEMENT_3D ( 'NONE', #317, #172, #313 ) ;
#186 = ORIENTED_EDGE ( 'NONE', *, *, #150, .F. ) ;
#187 = AXIS2_PLACEMENT_3D ( 'NONE', #298, #169, #143 ) ;
#188 = EDGE_CURVE ( 'NONE', #258, #28, #228, .T. ) ;
#189 = ADVANCED_FACE ( 'NONE', ( #204 ), #179, .T. ) ;
#190 = FACE_BOUND ( 'NONE', #157, .T. ) ;
#191 = ORIENTED_EDGE ( 'NONE', *, *, #151, .F. ) ;
#192 = PERSON_AND_ORGANIZATION ( #329, #145 ) ;
#193 = CYLINDRICAL_SURFACE ( 'NONE', #152, 2.500000000000000000 ) ;
#194 = CC_DESIGN_APPROVAL ( #107, ( #205 ) ) ;
#195 = CARTESIAN_POINT ( 'NONE',  ( 5.500000000000000000, 6.735557395310442023E-16, 1.000000000000000000 ) ) ;
#196 = DIRECTION ( 'NONE',  ( -1.000000000000000000, 0.000000000000000000, 0.000000000000000000 ) ) ;
#197 = DIRECTION ( 'NONE',  ( 0.000000000000000000, 0.000000000000000000, 1.000000000000000000 ) ) ;
#198 = DIRECTION ( 'NONE',  ( -0.000000000000000000, -0.000000000000000000, -1.000000000000000000 ) ) ;
#199 = CARTESIAN_POINT ( 'NONE',  ( 0.000000000000000000, 0.000000000000000000, 11.00000000000000000 ) ) ;
#200 = CIRCLE ( 'NONE', #271, 6.000000000000000888 ) ;
#201 = CC_DESIGN_PERSON_AND_ORGANIZATION_ASSIGNMENT ( #26, #250, ( #20 ) ) ;
#202 = DIRECTION ( 'NONE',  ( 0.000000000000000000, 0.000000000000000000, 1.000000000000000000 ) ) ;
#203 = DIRECTION ( 'NONE',  ( 0.000000000000000000, 0.000000000000000000, 1.000000000000000000 ) ) ;
#204 = FACE_OUTER_BOUND ( 'NONE', #84, .T. ) ;
#205 = SECURITY_CLASSIFICATION ( '', '', #98 ) ;
#206 = APPROVAL_DATE_TIME ( #184, #107 ) ;
#207 = APPROVAL_ROLE ( '' ) ;
#208 = DATE_AND_TIME ( #46, #252 ) ;
#209 = AXIS2_PLACEMENT_3D ( 'NONE', #220, #197, #21 ) ;
#210 = ORIENTED_EDGE ( 'NONE', *, *, #127, .F. ) ;
#211 = MANIFOLD_SOLID_BREP ( 'Enlèv. mat.-Extru.1', #77 ) ;
#212 = EDGE_CURVE ( 'NONE', #35, #256, #4, .T. ) ;
#213 = AXIS2_PLACEMENT_3D ( 'NONE', #123, #296, #68 ) ;
#214 = DIRECTION ( 'NONE',  ( 1.000000000000000000, 0.000000000000000000, 0.000000000000000000 ) ) ;
#215 = ORIENTED_EDGE ( 'NONE', *, *, #269, .T. ) ;
#216 = ORIENTED_EDGE ( 'NONE', *, *, #181, .F. ) ;
#217 = CARTESIAN_POINT ( 'NONE',  ( 6.000000000000000888, 7.347880794884120722E-16, 1.000000000000000000 ) ) ;
#218 = FACE_OUTER_BOUND ( 'NONE', #310, .T. ) ;
#219 = CYLINDRICAL_SURFACE ( 'NONE', #80, 2.500000000000000000 ) ;
#220 = CARTESIAN_POINT ( 'NONE',  ( 0.000000000000000000, 0.000000000000000000, 0.000000000000000000 ) ) ;
#221 = EDGE_CURVE ( 'NONE', #233, #258, #200, .T. ) ;
#222 = EDGE_CURVE ( 'NONE', #108, #49, #104, .T. ) ;
#223 = DESIGN_CONTEXT ( 'detailed design', #97, 'design' ) ;
#224 = DIRECTION ( 'NONE',  ( 1.000000000000000000, 0.000000000000000000, 0.000000000000000000 ) ) ;
#225 = DIRECTION ( 'NONE',  ( 1.000000000000000000, 0.000000000000000000, -0.000000000000000000 ) ) ;
#226 = CARTESIAN_POINT ( 'NONE',  ( 0.000000000000000000, 0.000000000000000000, 0.000000000000000000 ) ) ;
#227 = DATE_AND_TIME ( #325, #1 ) ;
#228 = LINE ( 'NONE', #59, #132 ) ;
#229 = ORIENTED_EDGE ( 'NONE', *, *, #112, .T. ) ;
#230 = CIRCLE ( 'NONE', #61, 6.000000000000000888 ) ;
#231 = AXIS2_PLACEMENT_3D ( 'NONE', #226, #203, #297 ) ;
#232 = DATE_TIME_ROLE ( 'creation_date' ) ;
#233 = VERTEX_POINT ( 'NONE', #16 ) ;
#234 = PRODUCT_RELATED_PRODUCT_CATEGORY ( 'detail', '', ( #7 ) ) ;
#235 = CARTESIAN_POINT ( 'NONE',  ( 0.000000000000000000, 0.000000000000000000, 0.000000000000000000 ) ) ;
#236 = DIRECTION ( 'NONE',  ( -0.000000000000000000, -0.000000000000000000, 1.000000000000000000 ) ) ;
#237 = EDGE_LOOP ( 'NONE', ( #102, #216 ) ) ;
#238 = EDGE_LOOP ( 'NONE', ( #260, #106 ) ) ;
#239 = CARTESIAN_POINT ( 'NONE',  ( 0.000000000000000000, 0.000000000000000000, 11.00000000000000000 ) ) ;
#240 = ORIENTED_EDGE ( 'NONE', *, *, #302, .T. ) ;
#241 = DIRECTION ( 'NONE',  ( -0.000000000000000000, -0.000000000000000000, -1.000000000000000000 ) ) ;
#242 = PLANE ( 'NONE',  #209 ) ;
#243 = LINE ( 'NONE', #114, #164 ) ;
#244 = DIRECTION ( 'NONE',  ( -0.000000000000000000, -0.000000000000000000, 1.000000000000000000 ) ) ;
#245 = DIRECTION ( 'NONE',  ( 1.000000000000000000, 0.000000000000000000, 0.000000000000000000 ) ) ;
#246 = FACE_BOUND ( 'NONE', #290, .T. ) ;
#247 = CALENDAR_DATE ( 2024, 28, 8 ) ;
#248 = DIRECTION ( 'NONE',  ( 0.000000000000000000, 0.000000000000000000, 1.000000000000000000 ) ) ;
#249 = DIRECTION ( 'NONE',  ( 1.000000000000000000, 0.000000000000000000, 0.000000000000000000 ) ) ;
#250 = PERSON_AND_ORGANIZATION_ROLE ( 'design_supplier' ) ;
#251 = VERTEX_POINT ( 'NONE', #67 ) ;
#252 = LOCAL_TIME ( 10, 52, 53.00000000000000000, #124 ) ;
#253 = APPROVAL ( #175, 'UNSPECIFIED' ) ;
#254 = PERSON_AND_ORGANIZATION ( #329, #145 ) ;
#255 = ORIENTED_EDGE ( 'NONE', *, *, #63, .T. ) ;
#256 = VERTEX_POINT ( 'NONE', #135 ) ;
#257 = AXIS2_PLACEMENT_3D ( 'NONE', #170, #174, #249 ) ;
#258 = VERTEX_POINT ( 'NONE', #217 ) ;
#259 = ORIENTED_EDGE ( 'NONE', *, *, #188, .T. ) ;
#260 = ORIENTED_EDGE ( 'NONE', *, *, #221, .T. ) ;
#261 = CIRCLE ( 'NONE', #119, 5.500000000000000000 ) ;
#262 = LOCAL_TIME ( 10, 52, 53.00000000000000000, #83 ) ;
#263 = EDGE_LOOP ( 'NONE', ( #6, #166, #229, #305 ) ) ;
#264 =( LENGTH_UNIT ( ) NAMED_UNIT ( * ) SI_UNIT ( .MILLI., .METRE. ) );
#265 = ORIENTED_EDGE ( 'NONE', *, *, #150, .T. ) ;
#266 = DIRECTION ( 'NONE',  ( -0.000000000000000000, -0.000000000000000000, -1.000000000000000000 ) ) ;
#267 = DIRECTION ( 'NONE',  ( -0.000000000000000000, -0.000000000000000000, -1.000000000000000000 ) ) ;
#268 = DIRECTION ( 'NONE',  ( 0.000000000000000000, 0.000000000000000000, 1.000000000000000000 ) ) ;
#269 = EDGE_CURVE ( 'NONE', #256, #35, #126, .T. ) ;
#270 = CARTESIAN_POINT ( 'NONE',  ( 0.000000000000000000, 0.000000000000000000, 11.00000000000000000 ) ) ;
#271 = AXIS2_PLACEMENT_3D ( 'NONE', #293, #11, #291 ) ;
#272 = CARTESIAN_POINT ( 'NONE',  ( 0.000000000000000000, 0.000000000000000000, 0.000000000000000000 ) ) ;
#273 = DIRECTION ( 'NONE',  ( -0.000000000000000000, -0.000000000000000000, -1.000000000000000000 ) ) ;
#274 = PERSON_AND_ORGANIZATION_ROLE ( 'design_owner' ) ;
#275 = DIRECTION ( 'NONE',  ( -0.000000000000000000, -0.000000000000000000, 1.000000000000000000 ) ) ;
#276 = UNCERTAINTY_MEASURE_WITH_UNIT (LENGTH_MEASURE( 1.000000000000000082E-05 ), #264, 'distance_accuracy_value', 'NONE');
#277 = PERSON_AND_ORGANIZATION ( #329, #145 ) ;
#278 = DIRECTION ( 'NONE',  ( -0.000000000000000000, -0.000000000000000000, -1.000000000000000000 ) ) ;
#279 = CALENDAR_DATE ( 2024, 28, 8 ) ;
#280 = PERSON_AND_ORGANIZATION ( #329, #145 ) ;
#281 = ADVANCED_FACE ( 'NONE', ( #14 ), #137, .T. ) ;
#282 = AXIS2_PLACEMENT_3D ( 'NONE', #131, #66, #225 ) ;
#283 = AXIS2_PLACEMENT_3D ( 'NONE', #199, #39, #122 ) ;
#284 = VERTEX_POINT ( 'NONE', #9 ) ;
#285 = ORIENTED_EDGE ( 'NONE', *, *, #269, .F. ) ;
#286 = CIRCLE ( 'NONE', #283, 5.500000000000000000 ) ;
#287 = ORIENTED_EDGE ( 'NONE', *, *, #89, .T. ) ;
#288 = FACE_OUTER_BOUND ( 'NONE', #238, .T. ) ;
#289 = ORIENTED_EDGE ( 'NONE', *, *, #212, .T. ) ;
#290 = EDGE_LOOP ( 'NONE', ( #50, #285 ) ) ;
#291 = DIRECTION ( 'NONE',  ( 1.000000000000000000, 0.000000000000000000, 0.000000000000000000 ) ) ;
#292 = CARTESIAN_POINT ( 'NONE',  ( -5.500000000000000000, 0.000000000000000000, 11.00000000000000000 ) ) ;
#293 = CARTESIAN_POINT ( 'NONE',  ( 0.000000000000000000, 0.000000000000000000, 1.000000000000000000 ) ) ;
#294 = CARTESIAN_POINT ( 'NONE',  ( 2.500000000000000000, 0.000000000000000000, 0.000000000000000000 ) ) ;
#295 = LINE ( 'NONE', #142, #125 ) ;
#296 = DIRECTION ( 'NONE',  ( 0.000000000000000000, 0.000000000000000000, 1.000000000000000000 ) ) ;
#297 = DIRECTION ( 'NONE',  ( 1.000000000000000000, 0.000000000000000000, 0.000000000000000000 ) ) ;
#298 = CARTESIAN_POINT ( 'NONE',  ( 0.000000000000000000, 0.000000000000000000, 11.00000000000000000 ) ) ;
#299 = AXIS2_PLACEMENT_3D ( 'NONE', #235, #103, #214 ) ;
#300 = AXIS2_PLACEMENT_3D ( 'NONE', #93, #266, #315 ) ;
#301 = PERSON_AND_ORGANIZATION_ROLE ( 'creator' ) ;
#302 = EDGE_CURVE ( 'NONE', #308, #108, #243, .T. ) ;
#303 = SHAPE_DEFINITION_REPRESENTATION ( #161, #118 ) ;
#304 = COORDINATED_UNIVERSAL_TIME_OFFSET ( 1, 0, .AHEAD. ) ;
#305 = ORIENTED_EDGE ( 'NONE', *, *, #101, .T. ) ;
#306 = VECTOR ( 'NONE', #278, 1000.000000000000000 ) ;
#307 = LOCAL_TIME ( 10, 52, 53.00000000000000000, #304 ) ;
#308 = VERTEX_POINT ( 'NONE', #56 ) ;
#309 = CC_DESIGN_DATE_AND_TIME_ASSIGNMENT ( #208, #232, ( #100 ) ) ;
#310 = EDGE_LOOP ( 'NONE', ( #191, #259, #57, #52 ) ) ;
#311 = APPLICATION_PROTOCOL_DEFINITION ( 'international standard', 'config_control_design', 1994, #97 ) ;
#312 = CARTESIAN_POINT ( 'NONE',  ( 0.000000000000000000, 0.000000000000000000, -9.000000000000001776 ) ) ;
#313 = DIRECTION ( 'NONE',  ( 1.000000000000000000, 0.000000000000000000, 0.000000000000000000 ) ) ;
#314 = ORIENTED_EDGE ( 'NONE', *, *, #160, .T. ) ;
#315 = DIRECTION ( 'NONE',  ( -1.000000000000000000, 0.000000000000000000, 0.000000000000000000 ) ) ;
#316 = DIRECTION ( 'NONE',  ( 1.000000000000000000, 0.000000000000000000, 0.000000000000000000 ) ) ;
#317 = CARTESIAN_POINT ( 'NONE',  ( 0.000000000000000000, 0.000000000000000000, 11.00000000000000000 ) ) ;
#318 = FACE_OUTER_BOUND ( 'NONE', #10, .T. ) ;
#319 = APPLICATION_PROTOCOL_DEFINITION ( 'international standard', 'config_control_design', 1994, #113 ) ;
#320 = AXIS2_PLACEMENT_3D ( 'NONE', #90, #18, #245 ) ;
#321 = CARTESIAN_POINT ( 'NONE',  ( 0.000000000000000000, 0.000000000000000000, 11.00000000000000000 ) ) ;
#322 = CARTESIAN_POINT ( 'NONE',  ( -5.500000000000000000, 0.000000000000000000, 1.000000000000000000 ) ) ;
#323 = CC_DESIGN_DATE_AND_TIME_ASSIGNMENT ( #227, #99, ( #205 ) ) ;
#324 = CARTESIAN_POINT ( 'NONE',  ( 0.000000000000000000, 0.000000000000000000, 1.000000000000000000 ) ) ;
#325 = CALENDAR_DATE ( 2024, 28, 8 ) ;
#326 = CC_DESIGN_PERSON_AND_ORGANIZATION_ASSIGNMENT ( #254, #147, ( #20 ) ) ;
#327 = ADVANCED_FACE ( 'NONE', ( #218 ), #109, .T. ) ;
#328 = PERSON_AND_ORGANIZATION_ROLE ( 'classification_officer' ) ;
#329 = PERSON ( 'UNSPECIFIED', 'UNSPECIFIED', 'UNSPECIFIED', ('UNSPECIFIED'), ('UNSPECIFIED'), ('UNSPECIFIED') ) ;
ENDSEC;
END-ISO-10303-21;
