ISO-10303-21;
HEADER;
/* Generated by software containing ST-Developer
 * from STEP Tools, Inc. (www.steptools.com) 
 */

FILE_DESCRIPTION(
/* description */ (''),
/* implementation_level */ '2;1');

FILE_NAME(
/* name */ 'Slot Bottom Face - Alu Sheet.step',
/* time_stamp */ '2024-08-28T23:33:29+01:00',
/* author */ (''),
/* organization */ (''),
/* preprocessor_version */ 'ST-DEVELOPER v20',
/* originating_system */ 'Autodesk Translation Framework v13.14.0.145',

/* authorisation */ '');

FILE_SCHEMA (('AUTOMOTIVE_DESIGN { 1 0 10303 214 3 1 1 }'));
ENDSEC;

DATA;
#10=MECHANICAL_DESIGN_GEOMETRIC_PRESENTATION_REPRESENTATION('',(#13),#323);
#11=SHAPE_REPRESENTATION_RELATIONSHIP('SRR','None',#330,#12);
#12=ADVANCED_BREP_SHAPE_REPRESENTATION('',(#14),#322);
#13=STYLED_ITEM('',(#339),#14);
#14=MANIFOLD_SOLID_BREP('Body1',#183);
#15=CYLINDRICAL_SURFACE('',#203,1.7);
#16=CYLINDRICAL_SURFACE('',#206,1.70000000000002);
#17=CYLINDRICAL_SURFACE('',#209,1.7);
#18=CYLINDRICAL_SURFACE('',#212,1.70000000000002);
#19=FACE_OUTER_BOUND('',#29,.T.);
#20=FACE_OUTER_BOUND('',#30,.T.);
#21=FACE_OUTER_BOUND('',#31,.T.);
#22=FACE_OUTER_BOUND('',#32,.T.);
#23=FACE_OUTER_BOUND('',#33,.T.);
#24=FACE_OUTER_BOUND('',#34,.T.);
#25=FACE_OUTER_BOUND('',#35,.T.);
#26=FACE_OUTER_BOUND('',#36,.T.);
#27=FACE_OUTER_BOUND('',#37,.T.);
#28=FACE_OUTER_BOUND('',#38,.T.);
#29=EDGE_LOOP('',(#119,#120,#121,#122,#123,#124,#125,#126));
#30=EDGE_LOOP('',(#127,#128,#129,#130));
#31=EDGE_LOOP('',(#131,#132,#133,#134));
#32=EDGE_LOOP('',(#135,#136,#137,#138));
#33=EDGE_LOOP('',(#139,#140,#141,#142));
#34=EDGE_LOOP('',(#143,#144,#145,#146));
#35=EDGE_LOOP('',(#147,#148,#149,#150));
#36=EDGE_LOOP('',(#151,#152,#153,#154));
#37=EDGE_LOOP('',(#155,#156,#157,#158));
#38=EDGE_LOOP('',(#159,#160,#161,#162,#163,#164,#165,#166));
#39=LINE('',#275,#55);
#40=LINE('',#279,#56);
#41=LINE('',#283,#57);
#42=LINE('',#286,#58);
#43=LINE('',#289,#59);
#44=LINE('',#291,#60);
#45=LINE('',#292,#61);
#46=LINE('',#296,#62);
#47=LINE('',#299,#63);
#48=LINE('',#300,#64);
#49=LINE('',#304,#65);
#50=LINE('',#307,#66);
#51=LINE('',#308,#67);
#52=LINE('',#312,#68);
#53=LINE('',#315,#69);
#54=LINE('',#316,#70);
#55=VECTOR('',#221,10.);
#56=VECTOR('',#224,10.);
#57=VECTOR('',#227,10.);
#58=VECTOR('',#230,10.);
#59=VECTOR('',#233,10.);
#60=VECTOR('',#234,10.);
#61=VECTOR('',#235,10.);
#62=VECTOR('',#240,10.);
#63=VECTOR('',#243,10.);
#64=VECTOR('',#244,10.);
#65=VECTOR('',#249,10.);
#66=VECTOR('',#252,10.);
#67=VECTOR('',#253,10.);
#68=VECTOR('',#258,10.);
#69=VECTOR('',#261,10.);
#70=VECTOR('',#262,10.);
#71=CIRCLE('',#198,1.70000000000002);
#72=CIRCLE('',#199,1.7);
#73=CIRCLE('',#200,1.70000000000002);
#74=CIRCLE('',#201,1.7);
#75=CIRCLE('',#204,1.7);
#76=CIRCLE('',#207,1.70000000000002);
#77=CIRCLE('',#210,1.7);
#78=CIRCLE('',#213,1.70000000000002);
#79=VERTEX_POINT('',#271);
#80=VERTEX_POINT('',#272);
#81=VERTEX_POINT('',#274);
#82=VERTEX_POINT('',#276);
#83=VERTEX_POINT('',#278);
#84=VERTEX_POINT('',#280);
#85=VERTEX_POINT('',#282);
#86=VERTEX_POINT('',#284);
#87=VERTEX_POINT('',#288);
#88=VERTEX_POINT('',#290);
#89=VERTEX_POINT('',#294);
#90=VERTEX_POINT('',#298);
#91=VERTEX_POINT('',#302);
#92=VERTEX_POINT('',#306);
#93=VERTEX_POINT('',#310);
#94=VERTEX_POINT('',#314);
#95=EDGE_CURVE('',#79,#80,#71,.T.);
#96=EDGE_CURVE('',#80,#81,#39,.T.);
#97=EDGE_CURVE('',#81,#82,#72,.T.);
#98=EDGE_CURVE('',#82,#83,#40,.T.);
#99=EDGE_CURVE('',#83,#84,#73,.T.);
#100=EDGE_CURVE('',#84,#85,#41,.T.);
#101=EDGE_CURVE('',#85,#86,#74,.T.);
#102=EDGE_CURVE('',#86,#79,#42,.T.);
#103=EDGE_CURVE('',#87,#80,#43,.T.);
#104=EDGE_CURVE('',#88,#87,#44,.T.);
#105=EDGE_CURVE('',#81,#88,#45,.T.);
#106=EDGE_CURVE('',#89,#88,#75,.T.);
#107=EDGE_CURVE('',#82,#89,#46,.T.);
#108=EDGE_CURVE('',#90,#89,#47,.T.);
#109=EDGE_CURVE('',#83,#90,#48,.T.);
#110=EDGE_CURVE('',#91,#90,#76,.T.);
#111=EDGE_CURVE('',#84,#91,#49,.T.);
#112=EDGE_CURVE('',#92,#91,#50,.T.);
#113=EDGE_CURVE('',#85,#92,#51,.T.);
#114=EDGE_CURVE('',#93,#92,#77,.T.);
#115=EDGE_CURVE('',#86,#93,#52,.T.);
#116=EDGE_CURVE('',#94,#93,#53,.T.);
#117=EDGE_CURVE('',#79,#94,#54,.T.);
#118=EDGE_CURVE('',#87,#94,#78,.T.);
#119=ORIENTED_EDGE('',*,*,#95,.T.);
#120=ORIENTED_EDGE('',*,*,#96,.T.);
#121=ORIENTED_EDGE('',*,*,#97,.T.);
#122=ORIENTED_EDGE('',*,*,#98,.T.);
#123=ORIENTED_EDGE('',*,*,#99,.T.);
#124=ORIENTED_EDGE('',*,*,#100,.T.);
#125=ORIENTED_EDGE('',*,*,#101,.T.);
#126=ORIENTED_EDGE('',*,*,#102,.T.);
#127=ORIENTED_EDGE('',*,*,#103,.F.);
#128=ORIENTED_EDGE('',*,*,#104,.F.);
#129=ORIENTED_EDGE('',*,*,#105,.F.);
#130=ORIENTED_EDGE('',*,*,#96,.F.);
#131=ORIENTED_EDGE('',*,*,#105,.T.);
#132=ORIENTED_EDGE('',*,*,#106,.F.);
#133=ORIENTED_EDGE('',*,*,#107,.F.);
#134=ORIENTED_EDGE('',*,*,#97,.F.);
#135=ORIENTED_EDGE('',*,*,#107,.T.);
#136=ORIENTED_EDGE('',*,*,#108,.F.);
#137=ORIENTED_EDGE('',*,*,#109,.F.);
#138=ORIENTED_EDGE('',*,*,#98,.F.);
#139=ORIENTED_EDGE('',*,*,#109,.T.);
#140=ORIENTED_EDGE('',*,*,#110,.F.);
#141=ORIENTED_EDGE('',*,*,#111,.F.);
#142=ORIENTED_EDGE('',*,*,#99,.F.);
#143=ORIENTED_EDGE('',*,*,#111,.T.);
#144=ORIENTED_EDGE('',*,*,#112,.F.);
#145=ORIENTED_EDGE('',*,*,#113,.F.);
#146=ORIENTED_EDGE('',*,*,#100,.F.);
#147=ORIENTED_EDGE('',*,*,#113,.T.);
#148=ORIENTED_EDGE('',*,*,#114,.F.);
#149=ORIENTED_EDGE('',*,*,#115,.F.);
#150=ORIENTED_EDGE('',*,*,#101,.F.);
#151=ORIENTED_EDGE('',*,*,#115,.T.);
#152=ORIENTED_EDGE('',*,*,#116,.F.);
#153=ORIENTED_EDGE('',*,*,#117,.F.);
#154=ORIENTED_EDGE('',*,*,#102,.F.);
#155=ORIENTED_EDGE('',*,*,#117,.T.);
#156=ORIENTED_EDGE('',*,*,#118,.F.);
#157=ORIENTED_EDGE('',*,*,#103,.T.);
#158=ORIENTED_EDGE('',*,*,#95,.F.);
#159=ORIENTED_EDGE('',*,*,#118,.T.);
#160=ORIENTED_EDGE('',*,*,#116,.T.);
#161=ORIENTED_EDGE('',*,*,#114,.T.);
#162=ORIENTED_EDGE('',*,*,#112,.T.);
#163=ORIENTED_EDGE('',*,*,#110,.T.);
#164=ORIENTED_EDGE('',*,*,#108,.T.);
#165=ORIENTED_EDGE('',*,*,#106,.T.);
#166=ORIENTED_EDGE('',*,*,#104,.T.);
#167=PLANE('',#197);
#168=PLANE('',#202);
#169=PLANE('',#205);
#170=PLANE('',#208);
#171=PLANE('',#211);
#172=PLANE('',#214);
#173=ADVANCED_FACE('',(#19),#167,.F.);
#174=ADVANCED_FACE('',(#20),#168,.T.);
#175=ADVANCED_FACE('',(#21),#15,.T.);
#176=ADVANCED_FACE('',(#22),#169,.T.);
#177=ADVANCED_FACE('',(#23),#16,.T.);
#178=ADVANCED_FACE('',(#24),#170,.T.);
#179=ADVANCED_FACE('',(#25),#17,.T.);
#180=ADVANCED_FACE('',(#26),#171,.T.);
#181=ADVANCED_FACE('',(#27),#18,.T.);
#182=ADVANCED_FACE('',(#28),#172,.T.);
#183=CLOSED_SHELL('',(#173,#174,#175,#176,#177,#178,#179,#180,#181,#182));
#184=DERIVED_UNIT_ELEMENT(#186,1.);
#185=DERIVED_UNIT_ELEMENT(#325,-3.);
#186=(
MASS_UNIT()
NAMED_UNIT(*)
SI_UNIT(.KILO.,.GRAM.)
);
#187=DERIVED_UNIT((#184,#185));
#188=MEASURE_REPRESENTATION_ITEM('density measure',
POSITIVE_RATIO_MEASURE(7850.),#187);
#189=PROPERTY_DEFINITION_REPRESENTATION(#194,#191);
#190=PROPERTY_DEFINITION_REPRESENTATION(#195,#192);
#191=REPRESENTATION('material name',(#193),#322);
#192=REPRESENTATION('density',(#188),#322);
#193=DESCRIPTIVE_REPRESENTATION_ITEM('Steel','Steel');
#194=PROPERTY_DEFINITION('material property','material name',#332);
#195=PROPERTY_DEFINITION('material property','density of part',#332);
#196=AXIS2_PLACEMENT_3D('',#269,#215,#216);
#197=AXIS2_PLACEMENT_3D('',#270,#217,#218);
#198=AXIS2_PLACEMENT_3D('',#273,#219,#220);
#199=AXIS2_PLACEMENT_3D('',#277,#222,#223);
#200=AXIS2_PLACEMENT_3D('',#281,#225,#226);
#201=AXIS2_PLACEMENT_3D('',#285,#228,#229);
#202=AXIS2_PLACEMENT_3D('',#287,#231,#232);
#203=AXIS2_PLACEMENT_3D('',#293,#236,#237);
#204=AXIS2_PLACEMENT_3D('',#295,#238,#239);
#205=AXIS2_PLACEMENT_3D('',#297,#241,#242);
#206=AXIS2_PLACEMENT_3D('',#301,#245,#246);
#207=AXIS2_PLACEMENT_3D('',#303,#247,#248);
#208=AXIS2_PLACEMENT_3D('',#305,#250,#251);
#209=AXIS2_PLACEMENT_3D('',#309,#254,#255);
#210=AXIS2_PLACEMENT_3D('',#311,#256,#257);
#211=AXIS2_PLACEMENT_3D('',#313,#259,#260);
#212=AXIS2_PLACEMENT_3D('',#317,#263,#264);
#213=AXIS2_PLACEMENT_3D('',#318,#265,#266);
#214=AXIS2_PLACEMENT_3D('',#319,#267,#268);
#215=DIRECTION('axis',(0.,0.,1.));
#216=DIRECTION('refdir',(1.,0.,0.));
#217=DIRECTION('center_axis',(0.,0.,-1.));
#218=DIRECTION('ref_axis',(1.,0.,0.));
#219=DIRECTION('center_axis',(0.,0.,1.));
#220=DIRECTION('ref_axis',(-2.61228946970622E-15,1.,0.));
#221=DIRECTION('',(-1.,-1.23931872516297E-15,0.));
#222=DIRECTION('center_axis',(0.,0.,1.));
#223=DIRECTION('ref_axis',(-1.,0.,0.));
#224=DIRECTION('',(-3.62136597064718E-17,-1.,0.));
#225=DIRECTION('center_axis',(0.,0.,1.));
#226=DIRECTION('ref_axis',(2.61228946970622E-15,-1.,0.));
#227=DIRECTION('',(1.,2.06553120860494E-15,0.));
#228=DIRECTION('center_axis',(0.,0.,1.));
#229=DIRECTION('ref_axis',(1.,1.0449157878825E-14,0.));
#230=DIRECTION('',(6.79350275396619E-17,1.,0.));
#231=DIRECTION('center_axis',(-1.23931872516297E-15,1.,0.));
#232=DIRECTION('ref_axis',(1.,1.23931872516297E-15,0.));
#233=DIRECTION('',(0.,0.,1.));
#234=DIRECTION('',(1.,1.23931872516297E-15,0.));
#235=DIRECTION('',(0.,0.,-1.));
#236=DIRECTION('center_axis',(0.,0.,-1.));
#237=DIRECTION('ref_axis',(-1.,0.,0.));
#238=DIRECTION('center_axis',(0.,0.,-1.));
#239=DIRECTION('ref_axis',(-1.,0.,0.));
#240=DIRECTION('',(0.,0.,-1.));
#241=DIRECTION('center_axis',(-1.,3.62136597064718E-17,0.));
#242=DIRECTION('ref_axis',(3.62136597064718E-17,1.,0.));
#243=DIRECTION('',(3.62136597064718E-17,1.,0.));
#244=DIRECTION('',(0.,0.,-1.));
#245=DIRECTION('center_axis',(0.,0.,-1.));
#246=DIRECTION('ref_axis',(2.61228946970622E-15,-1.,0.));
#247=DIRECTION('center_axis',(0.,0.,-1.));
#248=DIRECTION('ref_axis',(2.61228946970622E-15,-1.,0.));
#249=DIRECTION('',(0.,0.,-1.));
#250=DIRECTION('center_axis',(2.06553120860494E-15,-1.,0.));
#251=DIRECTION('ref_axis',(-1.,-2.06553120860494E-15,0.));
#252=DIRECTION('',(-1.,-2.06553120860494E-15,0.));
#253=DIRECTION('',(0.,0.,-1.));
#254=DIRECTION('center_axis',(0.,0.,-1.));
#255=DIRECTION('ref_axis',(1.,1.0449157878825E-14,0.));
#256=DIRECTION('center_axis',(0.,0.,-1.));
#257=DIRECTION('ref_axis',(1.,1.0449157878825E-14,0.));
#258=DIRECTION('',(0.,0.,-1.));
#259=DIRECTION('center_axis',(1.,3.62136597064718E-17,0.));
#260=DIRECTION('ref_axis',(3.62136597064718E-17,-1.,0.));
#261=DIRECTION('',(-6.79350275396619E-17,-1.,0.));
#262=DIRECTION('',(0.,0.,-1.));
#263=DIRECTION('center_axis',(0.,0.,-1.));
#264=DIRECTION('ref_axis',(-2.61228946970622E-15,1.,0.));
#265=DIRECTION('center_axis',(0.,0.,-1.));
#266=DIRECTION('ref_axis',(-2.61228946970622E-15,1.,0.));
#267=DIRECTION('center_axis',(0.,0.,-1.));
#268=DIRECTION('ref_axis',(1.,0.,0.));
#269=CARTESIAN_POINT('',(0.,0.,0.));
#270=CARTESIAN_POINT('Origin',(0.,4.54999999999997,-20.6001157347225));
#271=CARTESIAN_POINT('',(23.2,102.5,-20.6001157347225));
#272=CARTESIAN_POINT('',(21.5,104.2,-20.6001157347225));
#273=CARTESIAN_POINT('Origin',(21.5,102.5,-20.6001157347225));
#274=CARTESIAN_POINT('',(-21.5,104.2,-20.6001157347225));
#275=CARTESIAN_POINT('',(21.5,104.2,-20.6001157347225));
#276=CARTESIAN_POINT('',(-23.2,102.5,-20.6001157347225));
#277=CARTESIAN_POINT('Origin',(-21.5,102.5,-20.6001157347225));
#278=CARTESIAN_POINT('',(-23.2,-93.4000000000001,-20.6001157347225));
#279=CARTESIAN_POINT('',(-23.2,29.2303039929153,-20.6001157347225));
#280=CARTESIAN_POINT('',(-21.5,-95.1000000000001,-20.6001157347225));
#281=CARTESIAN_POINT('Origin',(-21.5,-93.4,-20.6001157347225));
#282=CARTESIAN_POINT('',(21.5,-95.0999999999999,-20.6001157347225));
#283=CARTESIAN_POINT('',(-21.5,-95.1000000000001,-20.6001157347225));
#284=CARTESIAN_POINT('',(23.2,-93.3999999999999,-20.6001157347225));
#285=CARTESIAN_POINT('Origin',(21.5,-93.4,-20.6001157347225));
#286=CARTESIAN_POINT('',(23.2,37.1303039929153,-20.6001157347225));
#287=CARTESIAN_POINT('Origin',(-21.5,104.2,-21.1001157347225));
#288=CARTESIAN_POINT('',(21.5,104.2,-21.6001157347225));
#289=CARTESIAN_POINT('',(21.5,104.2,-21.1001157347225));
#290=CARTESIAN_POINT('',(-21.5,104.2,-21.6001157347225));
#291=CARTESIAN_POINT('',(21.5,104.2,-21.6001157347225));
#292=CARTESIAN_POINT('',(-21.5,104.2,-21.1001157347225));
#293=CARTESIAN_POINT('Origin',(-21.5,102.5,-21.1001157347225));
#294=CARTESIAN_POINT('',(-23.2,102.5,-21.6001157347225));
#295=CARTESIAN_POINT('Origin',(-21.5,102.5,-21.6001157347225));
#296=CARTESIAN_POINT('',(-23.2,102.5,-21.1001157347225));
#297=CARTESIAN_POINT('Origin',(-23.2,-93.4000000000001,-21.1001157347225));
#298=CARTESIAN_POINT('',(-23.2,-93.4000000000001,-21.6001157347225));
#299=CARTESIAN_POINT('',(-23.2,29.2303039929153,-21.6001157347225));
#300=CARTESIAN_POINT('',(-23.2,-93.4000000000001,-21.1001157347225));
#301=CARTESIAN_POINT('Origin',(-21.5,-93.4,-21.1001157347225));
#302=CARTESIAN_POINT('',(-21.5,-95.1000000000001,-21.6001157347225));
#303=CARTESIAN_POINT('Origin',(-21.5,-93.4,-21.6001157347225));
#304=CARTESIAN_POINT('',(-21.5,-95.1000000000001,-21.1001157347225));
#305=CARTESIAN_POINT('Origin',(21.5,-95.1,-21.1001157347225));
#306=CARTESIAN_POINT('',(21.5,-95.0999999999999,-21.6001157347225));
#307=CARTESIAN_POINT('',(-21.5,-95.1000000000001,-21.6001157347225));
#308=CARTESIAN_POINT('',(21.5,-95.1,-21.1001157347225));
#309=CARTESIAN_POINT('Origin',(21.5,-93.4,-21.1001157347225));
#310=CARTESIAN_POINT('',(23.2,-93.3999999999999,-21.6001157347225));
#311=CARTESIAN_POINT('Origin',(21.5,-93.4,-21.6001157347225));
#312=CARTESIAN_POINT('',(23.2,-93.3999999999999,-21.1001157347225));
#313=CARTESIAN_POINT('Origin',(23.2,-67.3999999999999,-21.1001157347225));
#314=CARTESIAN_POINT('',(23.2,102.5,-21.6001157347225));
#315=CARTESIAN_POINT('',(23.2,37.1303039929153,-21.6001157347225));
#316=CARTESIAN_POINT('',(23.2,102.5,-21.1001157347225));
#317=CARTESIAN_POINT('Origin',(21.5,102.5,-21.1001157347225));
#318=CARTESIAN_POINT('Origin',(21.5,102.5,-21.6001157347225));
#319=CARTESIAN_POINT('Origin',(0.,4.54999999999997,-21.6001157347225));
#320=UNCERTAINTY_MEASURE_WITH_UNIT(LENGTH_MEASURE(0.01),#324,
'DISTANCE_ACCURACY_VALUE',
'Maximum model space distance between geometric entities at asserted c
onnectivities');
#321=UNCERTAINTY_MEASURE_WITH_UNIT(LENGTH_MEASURE(0.01),#324,
'DISTANCE_ACCURACY_VALUE',
'Maximum model space distance between geometric entities at asserted c
onnectivities');
#322=(
GEOMETRIC_REPRESENTATION_CONTEXT(3)
GLOBAL_UNCERTAINTY_ASSIGNED_CONTEXT((#320))
GLOBAL_UNIT_ASSIGNED_CONTEXT((#324,#326,#327))
REPRESENTATION_CONTEXT('','3D')
);
#323=(
GEOMETRIC_REPRESENTATION_CONTEXT(3)
GLOBAL_UNCERTAINTY_ASSIGNED_CONTEXT((#321))
GLOBAL_UNIT_ASSIGNED_CONTEXT((#324,#326,#327))
REPRESENTATION_CONTEXT('','3D')
);
#324=(
LENGTH_UNIT()
NAMED_UNIT(*)
SI_UNIT(.MILLI.,.METRE.)
);
#325=(
LENGTH_UNIT()
NAMED_UNIT(*)
SI_UNIT($,.METRE.)
);
#326=(
NAMED_UNIT(*)
PLANE_ANGLE_UNIT()
SI_UNIT($,.RADIAN.)
);
#327=(
NAMED_UNIT(*)
SI_UNIT($,.STERADIAN.)
SOLID_ANGLE_UNIT()
);
#328=SHAPE_DEFINITION_REPRESENTATION(#329,#330);
#329=PRODUCT_DEFINITION_SHAPE('',$,#332);
#330=SHAPE_REPRESENTATION('',(#196),#322);
#331=PRODUCT_DEFINITION_CONTEXT('part definition',#336,'design');
#332=PRODUCT_DEFINITION('Slot Bottom Face - Alu Sheet',
'Slot Bottom Face - Alu Sheet',#333,#331);
#333=PRODUCT_DEFINITION_FORMATION('',$,#338);
#334=PRODUCT_RELATED_PRODUCT_CATEGORY('Slot Bottom Face - Alu Sheet',
'Slot Bottom Face - Alu Sheet',(#338));
#335=APPLICATION_PROTOCOL_DEFINITION('international standard',
'automotive_design',2009,#336);
#336=APPLICATION_CONTEXT(
'Core Data for Automotive Mechanical Design Process');
#337=PRODUCT_CONTEXT('part definition',#336,'mechanical');
#338=PRODUCT('Slot Bottom Face - Alu Sheet',
'Slot Bottom Face - Alu Sheet',$,(#337));
#339=PRESENTATION_STYLE_ASSIGNMENT((#340));
#340=SURFACE_STYLE_USAGE(.BOTH.,#341);
#341=SURFACE_SIDE_STYLE('',(#342));
#342=SURFACE_STYLE_FILL_AREA(#343);
#343=FILL_AREA_STYLE('Steel - Satin',(#344));
#344=FILL_AREA_STYLE_COLOUR('Steel - Satin',#345);
#345=COLOUR_RGB('Steel - Satin',0.627450980392157,0.627450980392157,0.627450980392157);
ENDSEC;
END-ISO-10303-21;
