ISO-10303-21;
HEADER;
/* Generated by software containing ST-Developer
 * from STEP Tools, Inc. (www.steptools.com) 
 */

FILE_DESCRIPTION(
/* description */ (''),
/* implementation_level */ '2;1');

FILE_NAME(
/* name */ 'P Lid 2.step',
/* time_stamp */ '2024-08-28T23:33:53+01:00',
/* author */ (''),
/* organization */ (''),
/* preprocessor_version */ 'ST-DEVELOPER v20',
/* originating_system */ 'Autodesk Translation Framework v13.14.0.145',

/* authorisation */ '');

FILE_SCHEMA (('AUTOMOTIVE_DESIGN { 1 0 10303 214 3 1 1 }'));
ENDSEC;

DATA;
#10=MECHANICAL_DESIGN_GEOMETRIC_PRESENTATION_REPRESENTATION('',(#13),#479);
#11=SHAPE_REPRESENTATION_RELATIONSHIP('SRR','None',#486,#12);
#12=ADVANCED_BREP_SHAPE_REPRESENTATION('',(#14),#478);
#13=STYLED_ITEM('',(#496),#14);
#14=MANIFOLD_SOLID_BREP('Body1',#275);
#15=CYLINDRICAL_SURFACE('',#299,10.7);
#16=CYLINDRICAL_SURFACE('',#302,10.7);
#17=CYLINDRICAL_SURFACE('',#304,1.1);
#18=CYLINDRICAL_SURFACE('',#306,1.1);
#19=CYLINDRICAL_SURFACE('',#308,1.1);
#20=CYLINDRICAL_SURFACE('',#310,1.1);
#21=CYLINDRICAL_SURFACE('',#313,10.7);
#22=CYLINDRICAL_SURFACE('',#316,10.7);
#23=FACE_BOUND('',#46,.T.);
#24=FACE_BOUND('',#47,.T.);
#25=FACE_BOUND('',#48,.T.);
#26=FACE_BOUND('',#49,.T.);
#27=FACE_BOUND('',#63,.T.);
#28=FACE_BOUND('',#64,.T.);
#29=FACE_BOUND('',#65,.T.);
#30=FACE_BOUND('',#66,.T.);
#31=FACE_OUTER_BOUND('',#45,.T.);
#32=FACE_OUTER_BOUND('',#50,.T.);
#33=FACE_OUTER_BOUND('',#51,.T.);
#34=FACE_OUTER_BOUND('',#52,.T.);
#35=FACE_OUTER_BOUND('',#53,.T.);
#36=FACE_OUTER_BOUND('',#54,.T.);
#37=FACE_OUTER_BOUND('',#55,.T.);
#38=FACE_OUTER_BOUND('',#56,.T.);
#39=FACE_OUTER_BOUND('',#57,.T.);
#40=FACE_OUTER_BOUND('',#58,.T.);
#41=FACE_OUTER_BOUND('',#59,.T.);
#42=FACE_OUTER_BOUND('',#60,.T.);
#43=FACE_OUTER_BOUND('',#61,.T.);
#44=FACE_OUTER_BOUND('',#62,.T.);
#45=EDGE_LOOP('',(#183,#184,#185,#186,#187,#188,#189,#190));
#46=EDGE_LOOP('',(#191));
#47=EDGE_LOOP('',(#192));
#48=EDGE_LOOP('',(#193));
#49=EDGE_LOOP('',(#194));
#50=EDGE_LOOP('',(#195,#196,#197,#198));
#51=EDGE_LOOP('',(#199,#200,#201,#202));
#52=EDGE_LOOP('',(#203,#204,#205,#206));
#53=EDGE_LOOP('',(#207,#208,#209,#210));
#54=EDGE_LOOP('',(#211,#212,#213,#214));
#55=EDGE_LOOP('',(#215,#216,#217,#218));
#56=EDGE_LOOP('',(#219,#220,#221,#222));
#57=EDGE_LOOP('',(#223,#224,#225,#226));
#58=EDGE_LOOP('',(#227,#228,#229,#230));
#59=EDGE_LOOP('',(#231,#232,#233,#234));
#60=EDGE_LOOP('',(#235,#236,#237,#238));
#61=EDGE_LOOP('',(#239,#240,#241,#242));
#62=EDGE_LOOP('',(#243,#244,#245,#246,#247,#248,#249,#250));
#63=EDGE_LOOP('',(#251));
#64=EDGE_LOOP('',(#252));
#65=EDGE_LOOP('',(#253));
#66=EDGE_LOOP('',(#254));
#67=CIRCLE('',#290,10.7);
#68=CIRCLE('',#291,10.7);
#69=CIRCLE('',#292,10.7);
#70=CIRCLE('',#293,10.7);
#71=CIRCLE('',#294,1.1);
#72=CIRCLE('',#295,1.1);
#73=CIRCLE('',#296,1.1);
#74=CIRCLE('',#297,1.1);
#75=CIRCLE('',#300,10.7);
#76=CIRCLE('',#303,10.7);
#77=CIRCLE('',#305,1.1);
#78=CIRCLE('',#307,1.1);
#79=CIRCLE('',#309,1.1);
#80=CIRCLE('',#311,1.1);
#81=CIRCLE('',#314,10.7);
#82=CIRCLE('',#317,10.7);
#83=LINE('',#405,#103);
#84=LINE('',#409,#104);
#85=LINE('',#413,#105);
#86=LINE('',#417,#106);
#87=LINE('',#429,#107);
#88=LINE('',#431,#108);
#89=LINE('',#432,#109);
#90=LINE('',#435,#110);
#91=LINE('',#439,#111);
#92=LINE('',#440,#112);
#93=LINE('',#443,#113);
#94=LINE('',#448,#114);
#95=LINE('',#452,#115);
#96=LINE('',#456,#116);
#97=LINE('',#460,#117);
#98=LINE('',#463,#118);
#99=LINE('',#464,#119);
#100=LINE('',#467,#120);
#101=LINE('',#471,#121);
#102=LINE('',#472,#122);
#103=VECTOR('',#323,10.);
#104=VECTOR('',#326,10.);
#105=VECTOR('',#329,10.);
#106=VECTOR('',#332,10.);
#107=VECTOR('',#345,10.);
#108=VECTOR('',#346,10.);
#109=VECTOR('',#347,10.);
#110=VECTOR('',#350,10.);
#111=VECTOR('',#355,10.);
#112=VECTOR('',#356,10.);
#113=VECTOR('',#359,10.);
#114=VECTOR('',#366,1.1);
#115=VECTOR('',#371,1.1);
#116=VECTOR('',#376,1.1);
#117=VECTOR('',#381,1.1);
#118=VECTOR('',#384,10.);
#119=VECTOR('',#385,10.);
#120=VECTOR('',#388,10.);
#121=VECTOR('',#393,10.);
#122=VECTOR('',#394,10.);
#123=VERTEX_POINT('',#403);
#124=VERTEX_POINT('',#404);
#125=VERTEX_POINT('',#406);
#126=VERTEX_POINT('',#408);
#127=VERTEX_POINT('',#410);
#128=VERTEX_POINT('',#412);
#129=VERTEX_POINT('',#414);
#130=VERTEX_POINT('',#416);
#131=VERTEX_POINT('',#419);
#132=VERTEX_POINT('',#421);
#133=VERTEX_POINT('',#423);
#134=VERTEX_POINT('',#425);
#135=VERTEX_POINT('',#428);
#136=VERTEX_POINT('',#430);
#137=VERTEX_POINT('',#434);
#138=VERTEX_POINT('',#438);
#139=VERTEX_POINT('',#442);
#140=VERTEX_POINT('',#446);
#141=VERTEX_POINT('',#450);
#142=VERTEX_POINT('',#454);
#143=VERTEX_POINT('',#458);
#144=VERTEX_POINT('',#462);
#145=VERTEX_POINT('',#466);
#146=VERTEX_POINT('',#470);
#147=EDGE_CURVE('',#123,#124,#83,.T.);
#148=EDGE_CURVE('',#125,#123,#67,.T.);
#149=EDGE_CURVE('',#126,#125,#84,.T.);
#150=EDGE_CURVE('',#127,#126,#68,.T.);
#151=EDGE_CURVE('',#128,#127,#85,.T.);
#152=EDGE_CURVE('',#129,#128,#69,.T.);
#153=EDGE_CURVE('',#130,#129,#86,.T.);
#154=EDGE_CURVE('',#124,#130,#70,.T.);
#155=EDGE_CURVE('',#131,#131,#71,.T.);
#156=EDGE_CURVE('',#132,#132,#72,.T.);
#157=EDGE_CURVE('',#133,#133,#73,.T.);
#158=EDGE_CURVE('',#134,#134,#74,.T.);
#159=EDGE_CURVE('',#127,#135,#87,.T.);
#160=EDGE_CURVE('',#136,#135,#88,.T.);
#161=EDGE_CURVE('',#136,#128,#89,.T.);
#162=EDGE_CURVE('',#126,#137,#90,.T.);
#163=EDGE_CURVE('',#135,#137,#75,.T.);
#164=EDGE_CURVE('',#125,#138,#91,.T.);
#165=EDGE_CURVE('',#137,#138,#92,.T.);
#166=EDGE_CURVE('',#123,#139,#93,.T.);
#167=EDGE_CURVE('',#138,#139,#76,.T.);
#168=EDGE_CURVE('',#140,#140,#77,.T.);
#169=EDGE_CURVE('',#140,#131,#94,.T.);
#170=EDGE_CURVE('',#141,#141,#78,.T.);
#171=EDGE_CURVE('',#141,#132,#95,.T.);
#172=EDGE_CURVE('',#142,#142,#79,.T.);
#173=EDGE_CURVE('',#142,#134,#96,.T.);
#174=EDGE_CURVE('',#143,#143,#80,.T.);
#175=EDGE_CURVE('',#143,#133,#97,.T.);
#176=EDGE_CURVE('',#124,#144,#98,.T.);
#177=EDGE_CURVE('',#139,#144,#99,.T.);
#178=EDGE_CURVE('',#130,#145,#100,.T.);
#179=EDGE_CURVE('',#144,#145,#81,.T.);
#180=EDGE_CURVE('',#129,#146,#101,.T.);
#181=EDGE_CURVE('',#145,#146,#102,.T.);
#182=EDGE_CURVE('',#146,#136,#82,.T.);
#183=ORIENTED_EDGE('',*,*,#147,.F.);
#184=ORIENTED_EDGE('',*,*,#148,.F.);
#185=ORIENTED_EDGE('',*,*,#149,.F.);
#186=ORIENTED_EDGE('',*,*,#150,.F.);
#187=ORIENTED_EDGE('',*,*,#151,.F.);
#188=ORIENTED_EDGE('',*,*,#152,.F.);
#189=ORIENTED_EDGE('',*,*,#153,.F.);
#190=ORIENTED_EDGE('',*,*,#154,.F.);
#191=ORIENTED_EDGE('',*,*,#155,.F.);
#192=ORIENTED_EDGE('',*,*,#156,.F.);
#193=ORIENTED_EDGE('',*,*,#157,.F.);
#194=ORIENTED_EDGE('',*,*,#158,.F.);
#195=ORIENTED_EDGE('',*,*,#151,.T.);
#196=ORIENTED_EDGE('',*,*,#159,.T.);
#197=ORIENTED_EDGE('',*,*,#160,.F.);
#198=ORIENTED_EDGE('',*,*,#161,.T.);
#199=ORIENTED_EDGE('',*,*,#150,.T.);
#200=ORIENTED_EDGE('',*,*,#162,.T.);
#201=ORIENTED_EDGE('',*,*,#163,.F.);
#202=ORIENTED_EDGE('',*,*,#159,.F.);
#203=ORIENTED_EDGE('',*,*,#149,.T.);
#204=ORIENTED_EDGE('',*,*,#164,.T.);
#205=ORIENTED_EDGE('',*,*,#165,.F.);
#206=ORIENTED_EDGE('',*,*,#162,.F.);
#207=ORIENTED_EDGE('',*,*,#148,.T.);
#208=ORIENTED_EDGE('',*,*,#166,.T.);
#209=ORIENTED_EDGE('',*,*,#167,.F.);
#210=ORIENTED_EDGE('',*,*,#164,.F.);
#211=ORIENTED_EDGE('',*,*,#168,.T.);
#212=ORIENTED_EDGE('',*,*,#169,.T.);
#213=ORIENTED_EDGE('',*,*,#155,.T.);
#214=ORIENTED_EDGE('',*,*,#169,.F.);
#215=ORIENTED_EDGE('',*,*,#170,.T.);
#216=ORIENTED_EDGE('',*,*,#171,.T.);
#217=ORIENTED_EDGE('',*,*,#156,.T.);
#218=ORIENTED_EDGE('',*,*,#171,.F.);
#219=ORIENTED_EDGE('',*,*,#172,.T.);
#220=ORIENTED_EDGE('',*,*,#173,.T.);
#221=ORIENTED_EDGE('',*,*,#158,.T.);
#222=ORIENTED_EDGE('',*,*,#173,.F.);
#223=ORIENTED_EDGE('',*,*,#174,.T.);
#224=ORIENTED_EDGE('',*,*,#175,.T.);
#225=ORIENTED_EDGE('',*,*,#157,.T.);
#226=ORIENTED_EDGE('',*,*,#175,.F.);
#227=ORIENTED_EDGE('',*,*,#147,.T.);
#228=ORIENTED_EDGE('',*,*,#176,.T.);
#229=ORIENTED_EDGE('',*,*,#177,.F.);
#230=ORIENTED_EDGE('',*,*,#166,.F.);
#231=ORIENTED_EDGE('',*,*,#154,.T.);
#232=ORIENTED_EDGE('',*,*,#178,.T.);
#233=ORIENTED_EDGE('',*,*,#179,.F.);
#234=ORIENTED_EDGE('',*,*,#176,.F.);
#235=ORIENTED_EDGE('',*,*,#153,.T.);
#236=ORIENTED_EDGE('',*,*,#180,.T.);
#237=ORIENTED_EDGE('',*,*,#181,.F.);
#238=ORIENTED_EDGE('',*,*,#178,.F.);
#239=ORIENTED_EDGE('',*,*,#152,.T.);
#240=ORIENTED_EDGE('',*,*,#161,.F.);
#241=ORIENTED_EDGE('',*,*,#182,.F.);
#242=ORIENTED_EDGE('',*,*,#180,.F.);
#243=ORIENTED_EDGE('',*,*,#160,.T.);
#244=ORIENTED_EDGE('',*,*,#163,.T.);
#245=ORIENTED_EDGE('',*,*,#165,.T.);
#246=ORIENTED_EDGE('',*,*,#167,.T.);
#247=ORIENTED_EDGE('',*,*,#177,.T.);
#248=ORIENTED_EDGE('',*,*,#179,.T.);
#249=ORIENTED_EDGE('',*,*,#181,.T.);
#250=ORIENTED_EDGE('',*,*,#182,.T.);
#251=ORIENTED_EDGE('',*,*,#170,.F.);
#252=ORIENTED_EDGE('',*,*,#172,.F.);
#253=ORIENTED_EDGE('',*,*,#168,.F.);
#254=ORIENTED_EDGE('',*,*,#174,.F.);
#255=PLANE('',#289);
#256=PLANE('',#298);
#257=PLANE('',#301);
#258=PLANE('',#312);
#259=PLANE('',#315);
#260=PLANE('',#318);
#261=ADVANCED_FACE('',(#31,#23,#24,#25,#26),#255,.T.);
#262=ADVANCED_FACE('',(#32),#256,.F.);
#263=ADVANCED_FACE('',(#33),#15,.T.);
#264=ADVANCED_FACE('',(#34),#257,.F.);
#265=ADVANCED_FACE('',(#35),#16,.T.);
#266=ADVANCED_FACE('',(#36),#17,.F.);
#267=ADVANCED_FACE('',(#37),#18,.F.);
#268=ADVANCED_FACE('',(#38),#19,.F.);
#269=ADVANCED_FACE('',(#39),#20,.F.);
#270=ADVANCED_FACE('',(#40),#258,.F.);
#271=ADVANCED_FACE('',(#41),#21,.T.);
#272=ADVANCED_FACE('',(#42),#259,.F.);
#273=ADVANCED_FACE('',(#43),#22,.T.);
#274=ADVANCED_FACE('',(#44,#27,#28,#29,#30),#260,.F.);
#275=CLOSED_SHELL('',(#261,#262,#263,#264,#265,#266,#267,#268,#269,#270,
#271,#272,#273,#274));
#276=DERIVED_UNIT_ELEMENT(#278,1.);
#277=DERIVED_UNIT_ELEMENT(#481,-3.);
#278=(
MASS_UNIT()
NAMED_UNIT(*)
SI_UNIT(.KILO.,.GRAM.)
);
#279=DERIVED_UNIT((#276,#277));
#280=MEASURE_REPRESENTATION_ITEM('density measure',
POSITIVE_RATIO_MEASURE(7850.),#279);
#281=PROPERTY_DEFINITION_REPRESENTATION(#286,#283);
#282=PROPERTY_DEFINITION_REPRESENTATION(#287,#284);
#283=REPRESENTATION('material name',(#285),#478);
#284=REPRESENTATION('density',(#280),#478);
#285=DESCRIPTIVE_REPRESENTATION_ITEM('Steel','Steel');
#286=PROPERTY_DEFINITION('material property','material name',#488);
#287=PROPERTY_DEFINITION('material property','density of part',#488);
#288=AXIS2_PLACEMENT_3D('',#401,#319,#320);
#289=AXIS2_PLACEMENT_3D('',#402,#321,#322);
#290=AXIS2_PLACEMENT_3D('',#407,#324,#325);
#291=AXIS2_PLACEMENT_3D('',#411,#327,#328);
#292=AXIS2_PLACEMENT_3D('',#415,#330,#331);
#293=AXIS2_PLACEMENT_3D('',#418,#333,#334);
#294=AXIS2_PLACEMENT_3D('',#420,#335,#336);
#295=AXIS2_PLACEMENT_3D('',#422,#337,#338);
#296=AXIS2_PLACEMENT_3D('',#424,#339,#340);
#297=AXIS2_PLACEMENT_3D('',#426,#341,#342);
#298=AXIS2_PLACEMENT_3D('',#427,#343,#344);
#299=AXIS2_PLACEMENT_3D('',#433,#348,#349);
#300=AXIS2_PLACEMENT_3D('',#436,#351,#352);
#301=AXIS2_PLACEMENT_3D('',#437,#353,#354);
#302=AXIS2_PLACEMENT_3D('',#441,#357,#358);
#303=AXIS2_PLACEMENT_3D('',#444,#360,#361);
#304=AXIS2_PLACEMENT_3D('',#445,#362,#363);
#305=AXIS2_PLACEMENT_3D('',#447,#364,#365);
#306=AXIS2_PLACEMENT_3D('',#449,#367,#368);
#307=AXIS2_PLACEMENT_3D('',#451,#369,#370);
#308=AXIS2_PLACEMENT_3D('',#453,#372,#373);
#309=AXIS2_PLACEMENT_3D('',#455,#374,#375);
#310=AXIS2_PLACEMENT_3D('',#457,#377,#378);
#311=AXIS2_PLACEMENT_3D('',#459,#379,#380);
#312=AXIS2_PLACEMENT_3D('',#461,#382,#383);
#313=AXIS2_PLACEMENT_3D('',#465,#386,#387);
#314=AXIS2_PLACEMENT_3D('',#468,#389,#390);
#315=AXIS2_PLACEMENT_3D('',#469,#391,#392);
#316=AXIS2_PLACEMENT_3D('',#473,#395,#396);
#317=AXIS2_PLACEMENT_3D('',#474,#397,#398);
#318=AXIS2_PLACEMENT_3D('',#475,#399,#400);
#319=DIRECTION('axis',(0.,0.,1.));
#320=DIRECTION('refdir',(1.,0.,0.));
#321=DIRECTION('center_axis',(0.,0.,1.));
#322=DIRECTION('ref_axis',(-1.,0.,0.));
#323=DIRECTION('',(0.,1.,0.));
#324=DIRECTION('center_axis',(0.,0.,-1.));
#325=DIRECTION('ref_axis',(-1.,0.,0.));
#326=DIRECTION('',(-1.,-5.9211894646675E-16,0.));
#327=DIRECTION('center_axis',(0.,0.,-1.));
#328=DIRECTION('ref_axis',(-6.22554967079528E-16,-1.,0.));
#329=DIRECTION('',(-9.7334621337E-17,-1.,0.));
#330=DIRECTION('center_axis',(0.,0.,-1.));
#331=DIRECTION('ref_axis',(1.,1.66014657887874E-15,0.));
#332=DIRECTION('',(1.,-5.9211894646675E-16,0.));
#333=DIRECTION('center_axis',(0.,0.,-1.));
#334=DIRECTION('ref_axis',(-6.22554967079527E-16,1.,0.));
#335=DIRECTION('center_axis',(0.,0.,1.));
#336=DIRECTION('ref_axis',(1.,0.,0.));
#337=DIRECTION('center_axis',(0.,0.,1.));
#338=DIRECTION('ref_axis',(1.,0.,0.));
#339=DIRECTION('center_axis',(0.,0.,1.));
#340=DIRECTION('ref_axis',(1.,0.,0.));
#341=DIRECTION('center_axis',(0.,0.,1.));
#342=DIRECTION('ref_axis',(1.,0.,0.));
#343=DIRECTION('center_axis',(-1.,9.7334621337E-17,0.));
#344=DIRECTION('ref_axis',(9.7334621337E-17,1.,0.));
#345=DIRECTION('',(0.,0.,-1.));
#346=DIRECTION('',(-9.7334621337E-17,-1.,0.));
#347=DIRECTION('',(0.,0.,1.));
#348=DIRECTION('center_axis',(0.,0.,-1.));
#349=DIRECTION('ref_axis',(-6.22554967079528E-16,-1.,0.));
#350=DIRECTION('',(0.,0.,-1.));
#351=DIRECTION('center_axis',(0.,0.,-1.));
#352=DIRECTION('ref_axis',(-6.22554967079528E-16,-1.,0.));
#353=DIRECTION('center_axis',(-5.9211894646675E-16,1.,0.));
#354=DIRECTION('ref_axis',(1.,5.9211894646675E-16,0.));
#355=DIRECTION('',(0.,0.,-1.));
#356=DIRECTION('',(-1.,-5.9211894646675E-16,0.));
#357=DIRECTION('center_axis',(0.,0.,-1.));
#358=DIRECTION('ref_axis',(-1.,0.,0.));
#359=DIRECTION('',(0.,0.,-1.));
#360=DIRECTION('center_axis',(0.,0.,-1.));
#361=DIRECTION('ref_axis',(-1.,0.,0.));
#362=DIRECTION('center_axis',(0.,0.,1.));
#363=DIRECTION('ref_axis',(1.,0.,0.));
#364=DIRECTION('center_axis',(0.,0.,-1.));
#365=DIRECTION('ref_axis',(1.,0.,0.));
#366=DIRECTION('',(0.,0.,1.));
#367=DIRECTION('center_axis',(0.,0.,1.));
#368=DIRECTION('ref_axis',(1.,0.,0.));
#369=DIRECTION('center_axis',(0.,0.,-1.));
#370=DIRECTION('ref_axis',(1.,0.,0.));
#371=DIRECTION('',(0.,0.,1.));
#372=DIRECTION('center_axis',(0.,0.,1.));
#373=DIRECTION('ref_axis',(1.,0.,0.));
#374=DIRECTION('center_axis',(0.,0.,-1.));
#375=DIRECTION('ref_axis',(1.,0.,0.));
#376=DIRECTION('',(0.,0.,1.));
#377=DIRECTION('center_axis',(0.,0.,1.));
#378=DIRECTION('ref_axis',(1.,0.,0.));
#379=DIRECTION('center_axis',(0.,0.,-1.));
#380=DIRECTION('ref_axis',(1.,0.,0.));
#381=DIRECTION('',(0.,0.,1.));
#382=DIRECTION('center_axis',(1.,0.,0.));
#383=DIRECTION('ref_axis',(0.,-1.,0.));
#384=DIRECTION('',(0.,0.,-1.));
#385=DIRECTION('',(0.,1.,0.));
#386=DIRECTION('center_axis',(0.,0.,-1.));
#387=DIRECTION('ref_axis',(-6.22554967079527E-16,1.,0.));
#388=DIRECTION('',(0.,0.,-1.));
#389=DIRECTION('center_axis',(0.,0.,-1.));
#390=DIRECTION('ref_axis',(-6.22554967079527E-16,1.,0.));
#391=DIRECTION('center_axis',(-5.9211894646675E-16,-1.,0.));
#392=DIRECTION('ref_axis',(-1.,5.9211894646675E-16,0.));
#393=DIRECTION('',(0.,0.,-1.));
#394=DIRECTION('',(1.,-5.9211894646675E-16,0.));
#395=DIRECTION('center_axis',(0.,0.,-1.));
#396=DIRECTION('ref_axis',(1.,1.66014657887874E-15,0.));
#397=DIRECTION('center_axis',(0.,0.,-1.));
#398=DIRECTION('ref_axis',(1.,1.66014657887874E-15,0.));
#399=DIRECTION('center_axis',(0.,0.,1.));
#400=DIRECTION('ref_axis',(-1.,0.,0.));
#401=CARTESIAN_POINT('',(0.,0.,0.));
#402=CARTESIAN_POINT('Origin',(-8.88178419700125E-15,2.25,96.));
#403=CARTESIAN_POINT('',(-25.7,-89.,96.));
#404=CARTESIAN_POINT('',(-25.7,93.5,96.));
#405=CARTESIAN_POINT('',(-25.7,47.875,96.));
#406=CARTESIAN_POINT('',(-15.,-99.7,96.));
#407=CARTESIAN_POINT('Origin',(-15.,-89.,96.));
#408=CARTESIAN_POINT('',(15.,-99.7,96.));
#409=CARTESIAN_POINT('',(-7.49999999999998,-99.7,96.));
#410=CARTESIAN_POINT('',(25.7,-89.,96.));
#411=CARTESIAN_POINT('Origin',(15.,-89.,96.));
#412=CARTESIAN_POINT('',(25.7,93.5,96.));
#413=CARTESIAN_POINT('',(25.7,-43.375,96.));
#414=CARTESIAN_POINT('',(15.,104.2,96.));
#415=CARTESIAN_POINT('Origin',(15.,93.5,96.));
#416=CARTESIAN_POINT('',(-15.,104.2,96.));
#417=CARTESIAN_POINT('',(7.50000000000003,104.2,96.));
#418=CARTESIAN_POINT('Origin',(-15.,93.5,96.));
#419=CARTESIAN_POINT('',(-14.4,-34.5,96.));
#420=CARTESIAN_POINT('Origin',(-13.3,-34.5,96.));
#421=CARTESIAN_POINT('',(-14.4,41.5,96.));
#422=CARTESIAN_POINT('Origin',(-13.3,41.5,96.));
#423=CARTESIAN_POINT('',(12.2,41.5,96.));
#424=CARTESIAN_POINT('Origin',(13.3,41.5,96.));
#425=CARTESIAN_POINT('',(12.2,-34.5,96.));
#426=CARTESIAN_POINT('Origin',(13.3,-34.5,96.));
#427=CARTESIAN_POINT('Origin',(25.7,-89.,98.));
#428=CARTESIAN_POINT('',(25.7,-89.,95.));
#429=CARTESIAN_POINT('',(25.7,-89.,98.));
#430=CARTESIAN_POINT('',(25.7,93.5,95.));
#431=CARTESIAN_POINT('',(25.7,-43.375,95.));
#432=CARTESIAN_POINT('',(25.7,93.5,96.));
#433=CARTESIAN_POINT('Origin',(15.,-89.,98.));
#434=CARTESIAN_POINT('',(15.,-99.7,95.));
#435=CARTESIAN_POINT('',(15.,-99.7,98.));
#436=CARTESIAN_POINT('Origin',(15.,-89.,95.));
#437=CARTESIAN_POINT('Origin',(-15.,-99.7,98.));
#438=CARTESIAN_POINT('',(-15.,-99.7,95.));
#439=CARTESIAN_POINT('',(-15.,-99.7,98.));
#440=CARTESIAN_POINT('',(-7.49999999999998,-99.7,95.));
#441=CARTESIAN_POINT('Origin',(-15.,-89.,98.));
#442=CARTESIAN_POINT('',(-25.7,-89.,95.));
#443=CARTESIAN_POINT('',(-25.7,-89.,98.));
#444=CARTESIAN_POINT('Origin',(-15.,-89.,95.));
#445=CARTESIAN_POINT('Origin',(-13.3,-34.5,94.1));
#446=CARTESIAN_POINT('',(-14.4,-34.5,95.));
#447=CARTESIAN_POINT('Origin',(-13.3,-34.5,95.));
#448=CARTESIAN_POINT('',(-14.4,-34.5,94.1));
#449=CARTESIAN_POINT('Origin',(-13.3,41.5,94.1));
#450=CARTESIAN_POINT('',(-14.4,41.5,95.));
#451=CARTESIAN_POINT('Origin',(-13.3,41.5,95.));
#452=CARTESIAN_POINT('',(-14.4,41.5,94.1));
#453=CARTESIAN_POINT('Origin',(13.3,-34.5,94.1));
#454=CARTESIAN_POINT('',(12.2,-34.5,95.));
#455=CARTESIAN_POINT('Origin',(13.3,-34.5,95.));
#456=CARTESIAN_POINT('',(12.2,-34.5,94.1));
#457=CARTESIAN_POINT('Origin',(13.3,41.5,94.1));
#458=CARTESIAN_POINT('',(12.2,41.5,95.));
#459=CARTESIAN_POINT('Origin',(13.3,41.5,95.));
#460=CARTESIAN_POINT('',(12.2,41.5,94.1));
#461=CARTESIAN_POINT('Origin',(-25.7,93.5,98.));
#462=CARTESIAN_POINT('',(-25.7,93.5,95.));
#463=CARTESIAN_POINT('',(-25.7,93.5,98.));
#464=CARTESIAN_POINT('',(-25.7,47.875,95.));
#465=CARTESIAN_POINT('Origin',(-15.,93.5,98.));
#466=CARTESIAN_POINT('',(-15.,104.2,95.));
#467=CARTESIAN_POINT('',(-15.,104.2,98.));
#468=CARTESIAN_POINT('Origin',(-15.,93.5,95.));
#469=CARTESIAN_POINT('Origin',(15.,104.2,98.));
#470=CARTESIAN_POINT('',(15.,104.2,95.));
#471=CARTESIAN_POINT('',(15.,104.2,98.));
#472=CARTESIAN_POINT('',(7.50000000000003,104.2,95.));
#473=CARTESIAN_POINT('Origin',(15.,93.5,98.));
#474=CARTESIAN_POINT('Origin',(15.,93.5,95.));
#475=CARTESIAN_POINT('Origin',(-8.88178419700125E-15,2.25,95.));
#476=UNCERTAINTY_MEASURE_WITH_UNIT(LENGTH_MEASURE(0.01),#480,
'DISTANCE_ACCURACY_VALUE',
'Maximum model space distance between geometric entities at asserted c
onnectivities');
#477=UNCERTAINTY_MEASURE_WITH_UNIT(LENGTH_MEASURE(0.01),#480,
'DISTANCE_ACCURACY_VALUE',
'Maximum model space distance between geometric entities at asserted c
onnectivities');
#478=(
GEOMETRIC_REPRESENTATION_CONTEXT(3)
GLOBAL_UNCERTAINTY_ASSIGNED_CONTEXT((#476))
GLOBAL_UNIT_ASSIGNED_CONTEXT((#480,#482,#483))
REPRESENTATION_CONTEXT('','3D')
);
#479=(
GEOMETRIC_REPRESENTATION_CONTEXT(3)
GLOBAL_UNCERTAINTY_ASSIGNED_CONTEXT((#477))
GLOBAL_UNIT_ASSIGNED_CONTEXT((#480,#482,#483))
REPRESENTATION_CONTEXT('','3D')
);
#480=(
LENGTH_UNIT()
NAMED_UNIT(*)
SI_UNIT(.MILLI.,.METRE.)
);
#481=(
LENGTH_UNIT()
NAMED_UNIT(*)
SI_UNIT($,.METRE.)
);
#482=(
NAMED_UNIT(*)
PLANE_ANGLE_UNIT()
SI_UNIT($,.RADIAN.)
);
#483=(
NAMED_UNIT(*)
SI_UNIT($,.STERADIAN.)
SOLID_ANGLE_UNIT()
);
#484=SHAPE_DEFINITION_REPRESENTATION(#485,#486);
#485=PRODUCT_DEFINITION_SHAPE('',$,#488);
#486=SHAPE_REPRESENTATION('',(#288),#478);
#487=PRODUCT_DEFINITION_CONTEXT('part definition',#492,'design');
#488=PRODUCT_DEFINITION('Slot Lid - Alu CNC (1)',
'Slot Lid - Alu CNC (1)',#489,#487);
#489=PRODUCT_DEFINITION_FORMATION('',$,#494);
#490=PRODUCT_RELATED_PRODUCT_CATEGORY('Slot Lid - Alu CNC (1)',
'Slot Lid - Alu CNC (1)',(#494));
#491=APPLICATION_PROTOCOL_DEFINITION('international standard',
'automotive_design',2009,#492);
#492=APPLICATION_CONTEXT(
'Core Data for Automotive Mechanical Design Process');
#493=PRODUCT_CONTEXT('part definition',#492,'mechanical');
#494=PRODUCT('Slot Lid - Alu CNC (1)','Slot Lid - Alu CNC (1)',$,(#493));
#495=PRESENTATION_STYLE_ASSIGNMENT((#497));
#496=PRESENTATION_STYLE_ASSIGNMENT((#498));
#497=SURFACE_STYLE_USAGE(.BOTH.,#499);
#498=SURFACE_STYLE_USAGE(.BOTH.,#500);
#499=SURFACE_SIDE_STYLE('',(#501));
#500=SURFACE_SIDE_STYLE('',(#502));
#501=SURFACE_STYLE_FILL_AREA(#503);
#502=SURFACE_STYLE_FILL_AREA(#504);
#503=FILL_AREA_STYLE('Steel - Satin',(#505));
#504=FILL_AREA_STYLE('Coating - Black Oxide',(#506));
#505=FILL_AREA_STYLE_COLOUR('Steel - Satin',#507);
#506=FILL_AREA_STYLE_COLOUR('Coating - Black Oxide',#508);
#507=COLOUR_RGB('Steel - Satin',0.627450980392157,0.627450980392157,0.627450980392157);
#508=COLOUR_RGB('Coating - Black Oxide',0.450980392156863,0.450980392156863,
0.450980392156863);
ENDSEC;
END-ISO-10303-21;
