ISO-10303-21;
HEADER;
FILE_DESCRIPTION (( 'STEP AP214' ),
    '1' );
FILE_NAME ('TENDEUR.STEP',
    '2024-08-27T14:27:34',
    ( '' ),
    ( '' ),
    'SwSTEP 2.0',
    'SolidWorks 2016',
    '' );
FILE_SCHEMA (( 'AUTOMOTIVE_DESIGN' ));
ENDSEC;

DATA;
#1 = CARTESIAN_POINT ( 'NONE',  ( 22.00000000000000400, 22.75000000000000000, 0.0000000000000000000 ) ) ;
#2 = VECTOR ( 'NONE', #155, 1000.000000000000000 ) ;
#3 = CIRCLE ( 'NONE', #94, 13.65000000000000600 ) ;
#4 = DIRECTION ( 'NONE',  ( 0.0000000000000000000, 0.0000000000000000000, 1.000000000000000000 ) ) ;
#5 = DIRECTION ( 'NONE',  ( 1.000000000000000000, 0.0000000000000000000, 0.0000000000000000000 ) ) ;
#6 = AXIS2_PLACEMENT_3D ( 'NONE', #165, #84, #17 ) ;
#7 = DIRECTION ( 'NONE',  ( 0.0000000000000000000, -1.000000000000000000, 0.0000000000000000000 ) ) ;
#8 = APPLICATION_PROTOCOL_DEFINITION ( 'draft international standard', 'automotive_design', 1998, #357 ) ;
#9 =( GEOMETRIC_REPRESENTATION_CONTEXT ( 3 ) GLOBAL_UNCERTAINTY_ASSIGNED_CONTEXT ( ( #142 ) ) GLOBAL_UNIT_ASSIGNED_CONTEXT ( ( #240, #207, #128 ) ) REPRESENTATION_CONTEXT ( 'NONE', 'WORKASPACE' ) );
#10 = EDGE_CURVE ( 'NONE', #305, #342, #75, .T. ) ;
#11 = ORIENTED_EDGE ( 'NONE', *, *, #161, .F. ) ;
#12 = ADVANCED_FACE ( 'NONE', ( #79 ), #279, .F. ) ;
#13 = CARTESIAN_POINT ( 'NONE',  ( 0.0000000000000000000, 45.50000000000000000, 16.00000000000000000 ) ) ;
#14 = LINE ( 'NONE', #205, #2 ) ;
#15 = MECHANICAL_DESIGN_GEOMETRIC_PRESENTATION_REPRESENTATION (  '', ( #50 ), #152 ) ;
#16 = CARTESIAN_POINT ( 'NONE',  ( 0.0000000000000000000, 0.0000000000000000000, 0.0000000000000000000 ) ) ;
#17 = DIRECTION ( 'NONE',  ( 0.0000000000000000000, -0.0000000000000000000, 1.000000000000000000 ) ) ;
#18 = DIRECTION ( 'NONE',  ( -1.000000000000000000, 0.0000000000000000000, -0.0000000000000000000 ) ) ;
#19 = CIRCLE ( 'NONE', #72, 13.65000000000000600 ) ;
#20 = EDGE_LOOP ( 'NONE', ( #367, #189, #153, #74 ) ) ;
#21 = VERTEX_POINT ( 'NONE', #286 ) ;
#22 = ORIENTED_EDGE ( 'NONE', *, *, #289, .F. ) ;
#23 = CARTESIAN_POINT ( 'NONE',  ( 22.00000000000000400, 22.75000000000000000, 15.00000000000000000 ) ) ;
#24 = VECTOR ( 'NONE', #306, 1000.000000000000000 ) ;
#25 = FACE_BOUND ( 'NONE', #114, .T. ) ;
#26 = DIRECTION ( 'NONE',  ( -1.000000000000000000, 0.0000000000000000000, 0.0000000000000000000 ) ) ;
#27 = ORIENTED_EDGE ( 'NONE', *, *, #70, .T. ) ;
#28 = AXIS2_PLACEMENT_3D ( 'NONE', #48, #253, #195 ) ;
#29 = CARTESIAN_POINT ( 'NONE',  ( 22.00000000000000400, 22.75000000000000000, 15.00000000000000000 ) ) ;
#30 = DIRECTION ( 'NONE',  ( 1.000000000000000000, 0.0000000000000000000, 0.0000000000000000000 ) ) ;
#31 = PRESENTATION_STYLE_ASSIGNMENT (( #77 ) ) ;
#32 = CARTESIAN_POINT ( 'NONE',  ( 22.00000000000000400, 22.75000000000000000, 15.00000000000000000 ) ) ;
#33 = VECTOR ( 'NONE', #282, 1000.000000000000000 ) ;
#34 = ORIENTED_EDGE ( 'NONE', *, *, #212, .F. ) ;
#35 = VECTOR ( 'NONE', #325, 1000.000000000000000 ) ;
#36 = DIRECTION ( 'NONE',  ( -1.000000000000000000, 0.0000000000000000000, -0.0000000000000000000 ) ) ;
#37 = CARTESIAN_POINT ( 'NONE',  ( 22.00000000000000400, 22.75000000000000000, 0.0000000000000000000 ) ) ;
#38 = PRESENTATION_LAYER_ASSIGNMENT (  '', '', ( #317 ) ) ;
#39 = CARTESIAN_POINT ( 'NONE',  ( 52.00000000000000000, 0.0000000000000000000, 16.00000000000000000 ) ) ;
#40 = VERTEX_POINT ( 'NONE', #187 ) ;
#41 = SURFACE_SIDE_STYLE ('',( #118 ) ) ;
#42 = ADVANCED_FACE ( 'NONE', ( #263 ), #137, .F. ) ;
#43 = CARTESIAN_POINT ( 'NONE',  ( 0.0000000000000000000, 0.0000000000000000000, 16.00000000000000000 ) ) ;
#44 =( LENGTH_UNIT ( ) NAMED_UNIT ( * ) SI_UNIT ( .MILLI., .METRE. ) );
#45 = VECTOR ( 'NONE', #52, 1000.000000000000000 ) ;
#46 = PRESENTATION_STYLE_ASSIGNMENT (( #346 ) ) ;
#47 = CARTESIAN_POINT ( 'NONE',  ( 9.350000000000005000, 22.75000000000000000, 0.0000000000000000000 ) ) ;
#48 = CARTESIAN_POINT ( 'NONE',  ( 22.00000000000000400, 22.75000000000000000, 1.000000000000002700 ) ) ;
#49 = ADVANCED_FACE ( 'NONE', ( #115 ), #95, .F. ) ;
#50 = STYLED_ITEM ( 'NONE', ( #46 ), #96 ) ;
#51 = ADVANCED_FACE ( 'NONE', ( #203 ), #351, .F. ) ;
#52 = DIRECTION ( 'NONE',  ( -0.7071067811865456900, 0.0000000000000000000, -0.7071067811865493500 ) ) ;
#53 = ORIENTED_EDGE ( 'NONE', *, *, #10, .T. ) ;
#54 = FILL_AREA_STYLE ('',( #284 ) ) ;
#55 = LINE ( 'NONE', #271, #269 ) ;
#56 = LINE ( 'NONE', #261, #280 ) ;
#57 = ORIENTED_EDGE ( 'NONE', *, *, #225, .F. ) ;
#58 = DIRECTION ( 'NONE',  ( -1.000000000000000000, -0.0000000000000000000, -0.0000000000000000000 ) ) ;
#59 = DIRECTION ( 'NONE',  ( 0.0000000000000000000, 0.0000000000000000000, 1.000000000000000000 ) ) ;
#60 = FACE_OUTER_BOUND ( 'NONE', #202, .T. ) ;
#61 = APPLICATION_CONTEXT ( 'automotive_design' ) ;
#62 = ORIENTED_EDGE ( 'NONE', *, *, #112, .F. ) ;
#63 = PRODUCT_RELATED_PRODUCT_CATEGORY ( 'part', '', ( #104 ) ) ;
#64 = MECHANICAL_DESIGN_GEOMETRIC_PRESENTATION_REPRESENTATION (  '', ( #317 ), #9 ) ;
#65 = DIRECTION ( 'NONE',  ( -0.0000000000000000000, -0.0000000000000000000, -1.000000000000000000 ) ) ;
#66 = CIRCLE ( 'NONE', #294, 13.64999999999999100 ) ;
#67 = EDGE_LOOP ( 'NONE', ( #34, #232, #299, #214 ) ) ;
#68 = EDGE_LOOP ( 'NONE', ( #298, #53, #360, #259 ) ) ;
#69 = EDGE_CURVE ( 'NONE', #224, #40, #208, .T. ) ;
#70 = EDGE_CURVE ( 'NONE', #342, #328, #19, .T. ) ;
#71 = PLANE ( 'NONE',  #311 ) ;
#72 = AXIS2_PLACEMENT_3D ( 'NONE', #139, #171, #148 ) ;
#73 = SURFACE_STYLE_FILL_AREA ( #54 ) ;
#74 = ORIENTED_EDGE ( 'NONE', *, *, #101, .T. ) ;
#75 = LINE ( 'NONE', #199, #274 ) ;
#76 = CARTESIAN_POINT ( 'NONE',  ( 9.350000000000005000, 22.75000000000000000, 15.00000000000000000 ) ) ;
#77 = SURFACE_STYLE_USAGE ( .BOTH. , #41 ) ;
#78 = CONICAL_SURFACE ( 'NONE', #345, 13.64999999999999500, 0.7853981633974457300 ) ;
#79 = FACE_OUTER_BOUND ( 'NONE', #369, .T. ) ;
#80 = AXIS2_PLACEMENT_3D ( 'NONE', #108, #174, #5 ) ;
#81 = ORIENTED_EDGE ( 'NONE', *, *, #212, .T. ) ;
#82 = ORIENTED_EDGE ( 'NONE', *, *, #70, .F. ) ;
#83 = DIRECTION ( 'NONE',  ( 0.0000000000000000000, 0.0000000000000000000, -1.000000000000000000 ) ) ;
#84 = DIRECTION ( 'NONE',  ( 0.0000000000000000000, 1.000000000000000000, 0.0000000000000000000 ) ) ;
#85 = CARTESIAN_POINT ( 'NONE',  ( 0.0000000000000000000, 0.0000000000000000000, 16.00000000000000000 ) ) ;
#86 = EDGE_CURVE ( 'NONE', #328, #342, #3, .T. ) ;
#87 = EDGE_CURVE ( 'NONE', #264, #224, #303, .T. ) ;
#88 = CARTESIAN_POINT ( 'NONE',  ( 34.64999999999999900, 22.75000000000000000, 0.0000000000000000000 ) ) ;
#89 = FACE_OUTER_BOUND ( 'NONE', #145, .T. ) ;
#90 = DIRECTION ( 'NONE',  ( -1.000000000000000000, 0.0000000000000000000, 0.0000000000000000000 ) ) ;
#91 = EDGE_CURVE ( 'NONE', #193, #188, #56, .T. ) ;
#92 = CARTESIAN_POINT ( 'NONE',  ( 35.65000000000000600, 22.75000000000000000, 16.00000000000000000 ) ) ;
#93 = VERTEX_POINT ( 'NONE', #310 ) ;
#94 = AXIS2_PLACEMENT_3D ( 'NONE', #316, #337, #144 ) ;
#95 = PLANE ( 'NONE',  #221 ) ;
#96 = MANIFOLD_SOLID_BREP ( 'Chanfrein1', #256 ) ;
#97 = CARTESIAN_POINT ( 'NONE',  ( 8.349999999999997900, 22.75000000000000000, 16.00000000000000000 ) ) ;
#98 = FACE_OUTER_BOUND ( 'NONE', #373, .T. ) ;
#99 = DIRECTION ( 'NONE',  ( 1.000000000000000000, 0.0000000000000000000, 0.0000000000000000000 ) ) ;
#100 = PRODUCT_DEFINITION ( 'UNKNOWN', '', #120, #211 ) ;
#101 = EDGE_CURVE ( 'NONE', #193, #364, #123, .T. ) ;
#102 = ORIENTED_EDGE ( 'NONE', *, *, #172, .F. ) ;
#103 = ORIENTED_EDGE ( 'NONE', *, *, #268, .F. ) ;
#104 = PRODUCT ( 'TENDEUR', 'TENDEUR', '', ( #234 ) ) ;
#105 =( NAMED_UNIT ( * ) SI_UNIT ( $, .STERADIAN. ) SOLID_ANGLE_UNIT ( ) );
#106 = VERTEX_POINT ( 'NONE', #190 ) ;
#107 = DIRECTION ( 'NONE',  ( 1.000000000000000000, 0.0000000000000000000, 0.0000000000000000000 ) ) ;
#108 = CARTESIAN_POINT ( 'NONE',  ( 0.0000000000000000000, 0.0000000000000000000, 0.0000000000000000000 ) ) ;
#109 = VECTOR ( 'NONE', #216, 1000.000000000000000 ) ;
#110 = VECTOR ( 'NONE', #111, 1000.000000000000000 ) ;
#111 = DIRECTION ( 'NONE',  ( -0.0000000000000000000, -0.0000000000000000000, -1.000000000000000000 ) ) ;
#112 = EDGE_CURVE ( 'NONE', #168, #364, #331, .T. ) ;
#113 = VECTOR ( 'NONE', #226, 1000.000000000000000 ) ;
#114 = EDGE_LOOP ( 'NONE', ( #230, #27 ) ) ;
#115 = FACE_OUTER_BOUND ( 'NONE', #239, .T. ) ;
#116 = DIRECTION ( 'NONE',  ( -0.0000000000000000000, -0.0000000000000000000, 1.000000000000000000 ) ) ;
#117 = CARTESIAN_POINT ( 'NONE',  ( 52.00000000000000000, 0.0000000000000000000, 16.00000000000000000 ) ) ;
#118 = SURFACE_STYLE_FILL_AREA ( #217 ) ;
#119 = CARTESIAN_POINT ( 'NONE',  ( 22.00000000000000400, 22.75000000000000000, 0.0000000000000000000 ) ) ;
#120 = PRODUCT_DEFINITION_FORMATION_WITH_SPECIFIED_SOURCE ( 'ANY', '', #104, .NOT_KNOWN. ) ;
#121 = LINE ( 'NONE', #366, #350 ) ;
#122 = LINE ( 'NONE', #222, #340 ) ;
#123 = LINE ( 'NONE', #192, #110 ) ;
#124 = ORIENTED_EDGE ( 'NONE', *, *, #288, .T. ) ;
#125 = CARTESIAN_POINT ( 'NONE',  ( 0.0000000000000000000, 0.0000000000000000000, 16.00000000000000000 ) ) ;
#126 = EDGE_CURVE ( 'NONE', #40, #328, #176, .T. ) ;
#127 = LINE ( 'NONE', #47, #178 ) ;
#128 =( NAMED_UNIT ( * ) SI_UNIT ( $, .STERADIAN. ) SOLID_ANGLE_UNIT ( ) );
#129 = COLOUR_RGB ( '',1.000000000000000000, 1.000000000000000000, 1.000000000000000000 ) ;
#130 = CARTESIAN_POINT ( 'NONE',  ( 0.0000000000000000000, 45.50000000000000000, 16.00000000000000000 ) ) ;
#131 = ORIENTED_EDGE ( 'NONE', *, *, #265, .T. ) ;
#132 = EDGE_CURVE ( 'NONE', #272, #170, #121, .T. ) ;
#133 = DIRECTION ( 'NONE',  ( -0.0000000000000000000, -0.0000000000000000000, 1.000000000000000000 ) ) ;
#134 = LINE ( 'NONE', #177, #287 ) ;
#135 = VECTOR ( 'NONE', #116, 1000.000000000000000 ) ;
#136 = EDGE_LOOP ( 'NONE', ( #157, #326, #209, #57 ) ) ;
#137 = PLANE ( 'NONE',  #315 ) ;
#138 = FILL_AREA_STYLE_COLOUR ( '', #336 ) ;
#139 = CARTESIAN_POINT ( 'NONE',  ( 22.00000000000000400, 22.75000000000000000, 16.00000000000000000 ) ) ;
#140 = ADVANCED_FACE ( 'NONE', ( #278, #257 ), #228, .T. ) ;
#141 = CARTESIAN_POINT ( 'NONE',  ( 52.00000000000000000, 0.0000000000000000000, 0.0000000000000000000 ) ) ;
#142 = UNCERTAINTY_MEASURE_WITH_UNIT (LENGTH_MEASURE( 1.000000000000000100E-005 ), #240, 'distance_accuracy_value', 'NONE');
#143 = ADVANCED_FACE ( 'NONE', ( #359 ), #71, .F. ) ;
#144 = DIRECTION ( 'NONE',  ( -1.000000000000000000, 0.0000000000000000000, 0.0000000000000000000 ) ) ;
#145 = EDGE_LOOP ( 'NONE', ( #302, #81, #297, #243 ) ) ;
#146 = EDGE_CURVE ( 'NONE', #93, #215, #66, .T. ) ;
#147 = EDGE_LOOP ( 'NONE', ( #301, #181 ) ) ;
#148 = DIRECTION ( 'NONE',  ( -1.000000000000000000, 0.0000000000000000000, 0.0000000000000000000 ) ) ;
#149 = LINE ( 'NONE', #43, #319 ) ;
#150 = ORIENTED_EDGE ( 'NONE', *, *, #154, .T. ) ;
#151 = DIRECTION ( 'NONE',  ( -0.0000000000000000000, -0.0000000000000000000, -1.000000000000000000 ) ) ;
#152 =( GEOMETRIC_REPRESENTATION_CONTEXT ( 3 ) GLOBAL_UNCERTAINTY_ASSIGNED_CONTEXT ( ( #300 ) ) GLOBAL_UNIT_ASSIGNED_CONTEXT ( ( #248, #292, #376 ) ) REPRESENTATION_CONTEXT ( 'NONE', 'WORKASPACE' ) );
#153 = ORIENTED_EDGE ( 'NONE', *, *, #91, .F. ) ;
#154 = EDGE_CURVE ( 'NONE', #106, #193, #134, .T. ) ;
#155 = DIRECTION ( 'NONE',  ( 1.000000000000000000, 0.0000000000000000000, 0.0000000000000000000 ) ) ;
#156 = SHAPE_DEFINITION_REPRESENTATION ( #158, #162 ) ;
#157 = ORIENTED_EDGE ( 'NONE', *, *, #201, .F. ) ;
#158 = PRODUCT_DEFINITION_SHAPE ( 'NONE', 'NONE',  #100 ) ;
#159 = CARTESIAN_POINT ( 'NONE',  ( 34.64999999999999900, 22.75000000000000000, 15.00000000000000000 ) ) ;
#160 = EDGE_CURVE ( 'NONE', #188, #21, #55, .T. ) ;
#161 = EDGE_CURVE ( 'NONE', #264, #93, #206, .T. ) ;
#162 = ADVANCED_BREP_SHAPE_REPRESENTATION ( 'TENDEUR', ( #96, #80 ), #275 ) ;
#163 = ADVANCED_FACE ( 'NONE', ( #186 ), #249, .F. ) ;
#164 = CARTESIAN_POINT ( 'NONE',  ( 52.00000000000000000, 0.0000000000000000000, 0.0000000000000000000 ) ) ;
#165 = CARTESIAN_POINT ( 'NONE',  ( 0.0000000000000000000, 0.0000000000000000000, 16.00000000000000000 ) ) ;
#166 = CYLINDRICAL_SURFACE ( 'NONE', #338, 12.64999999999999900 ) ;
#167 = LINE ( 'NONE', #191, #113 ) ;
#168 = VERTEX_POINT ( 'NONE', #164 ) ;
#169 = FACE_OUTER_BOUND ( 'NONE', #334, .T. ) ;
#170 = VERTEX_POINT ( 'NONE', #335 ) ;
#171 = DIRECTION ( 'NONE',  ( 0.0000000000000000000, 0.0000000000000000000, -1.000000000000000000 ) ) ;
#172 = EDGE_CURVE ( 'NONE', #364, #21, #167, .T. ) ;
#173 = AXIS2_PLACEMENT_3D ( 'NONE', #29, #262, #236 ) ;
#174 = DIRECTION ( 'NONE',  ( 0.0000000000000000000, 0.0000000000000000000, 1.000000000000000000 ) ) ;
#175 = LINE ( 'NONE', #16, #109 ) ;
#176 = LINE ( 'NONE', #159, #24 ) ;
#177 = CARTESIAN_POINT ( 'NONE',  ( 52.00000000000000000, 0.0000000000000000000, 16.00000000000000000 ) ) ;
#178 = VECTOR ( 'NONE', #363, 1000.000000000000000 ) ;
#179 = DIRECTION ( 'NONE',  ( 1.000000000000000000, 0.0000000000000000000, 0.0000000000000000000 ) ) ;
#180 = DIRECTION ( 'NONE',  ( -1.000000000000000000, 0.0000000000000000000, 0.0000000000000000000 ) ) ;
#181 = ORIENTED_EDGE ( 'NONE', *, *, #225, .T. ) ;
#182 = CARTESIAN_POINT ( 'NONE',  ( 0.0000000000000000000, 0.0000000000000000000, 16.00000000000000000 ) ) ;
#183 = CARTESIAN_POINT ( 'NONE',  ( 9.350000000000005000, 22.75000000000000000, 1.000000000000002700 ) ) ;
#184 = LINE ( 'NONE', #125, #349 ) ;
#185 = CARTESIAN_POINT ( 'NONE',  ( 34.64999999999999900, 22.75000000000000000, 1.000000000000002700 ) ) ;
#186 = FACE_OUTER_BOUND ( 'NONE', #67, .T. ) ;
#187 = CARTESIAN_POINT ( 'NONE',  ( 34.64999999999999900, 22.75000000000000000, 15.00000000000000000 ) ) ;
#188 = VERTEX_POINT ( 'NONE', #13 ) ;
#189 = ORIENTED_EDGE ( 'NONE', *, *, #160, .F. ) ;
#190 = CARTESIAN_POINT ( 'NONE',  ( 52.00000000000000000, 0.0000000000000000000, 16.00000000000000000 ) ) ;
#191 = CARTESIAN_POINT ( 'NONE',  ( 0.0000000000000000000, 45.50000000000000000, 0.0000000000000000000 ) ) ;
#192 = CARTESIAN_POINT ( 'NONE',  ( 52.00000000000000000, 45.50000000000000000, 16.00000000000000000 ) ) ;
#193 = VERTEX_POINT ( 'NONE', #247 ) ;
#194 = ORIENTED_EDGE ( 'NONE', *, *, #201, .T. ) ;
#195 = DIRECTION ( 'NONE',  ( -1.000000000000000000, 0.0000000000000000000, 0.0000000000000000000 ) ) ;
#196 = CIRCLE ( 'NONE', #361, 13.64999999999999100 ) ;
#197 = DIRECTION ( 'NONE',  ( 0.0000000000000000000, 0.0000000000000000000, 1.000000000000000000 ) ) ;
#198 = DIRECTION ( 'NONE',  ( -0.7071067811865493500, 8.659560562354955000E-017, 0.7071067811865456900 ) ) ;
#199 = CARTESIAN_POINT ( 'NONE',  ( 9.350000000000005000, 22.75000000000000000, 15.00000000000000000 ) ) ;
#200 = CARTESIAN_POINT ( 'NONE',  ( 22.00000000000000400, 22.75000000000000000, 0.0000000000000000000 ) ) ;
#201 = EDGE_CURVE ( 'NONE', #224, #215, #122, .T. ) ;
#202 = EDGE_LOOP ( 'NONE', ( #327, #194, #374, #11 ) ) ;
#203 = FACE_OUTER_BOUND ( 'NONE', #68, .T. ) ;
#204 = CARTESIAN_POINT ( 'NONE',  ( 52.00000000000000000, 45.50000000000000000, 0.0000000000000000000 ) ) ;
#205 = CARTESIAN_POINT ( 'NONE',  ( 0.0000000000000000000, 0.0000000000000000000, 0.0000000000000000000 ) ) ;
#206 = LINE ( 'NONE', #241, #45 ) ;
#207 =( NAMED_UNIT ( * ) PLANE_ANGLE_UNIT ( ) SI_UNIT ( $, .RADIAN. ) );
#208 = LINE ( 'NONE', #88, #135 ) ;
#209 = ORIENTED_EDGE ( 'NONE', *, *, #161, .T. ) ;
#210 = DIRECTION ( 'NONE',  ( 0.0000000000000000000, -0.0000000000000000000, -1.000000000000000000 ) ) ;
#211 = PRODUCT_DEFINITION_CONTEXT ( 'detailed design', #61, 'design' ) ;
#212 = EDGE_CURVE ( 'NONE', #264, #305, #127, .T. ) ;
#213 = DIRECTION ( 'NONE',  ( -0.0000000000000000000, -0.0000000000000000000, 1.000000000000000000 ) ) ;
#214 = ORIENTED_EDGE ( 'NONE', *, *, #358, .T. ) ;
#215 = VERTEX_POINT ( 'NONE', #283 ) ;
#216 = DIRECTION ( 'NONE',  ( -0.0000000000000000000, -1.000000000000000000, -0.0000000000000000000 ) ) ;
#217 = FILL_AREA_STYLE ('',( #138 ) ) ;
#218 = DIRECTION ( 'NONE',  ( -0.0000000000000000000, -1.000000000000000000, -0.0000000000000000000 ) ) ;
#219 = ORIENTED_EDGE ( 'NONE', *, *, #289, .T. ) ;
#220 = ORIENTED_EDGE ( 'NONE', *, *, #160, .T. ) ;
#221 = AXIS2_PLACEMENT_3D ( 'NONE', #117, #26, #59 ) ;
#222 = CARTESIAN_POINT ( 'NONE',  ( 35.64999999999999900, 22.75000000000000000, 0.0000000000000000000 ) ) ;
#223 = ADVANCED_FACE ( 'NONE', ( #25, #169 ), #251, .F. ) ;
#224 = VERTEX_POINT ( 'NONE', #185 ) ;
#225 = EDGE_CURVE ( 'NONE', #215, #93, #196, .T. ) ;
#226 = DIRECTION ( 'NONE',  ( -1.000000000000000000, -0.0000000000000000000, -0.0000000000000000000 ) ) ;
#227 = DIRECTION ( 'NONE',  ( -0.0000000000000000000, -0.0000000000000000000, -1.000000000000000000 ) ) ;
#228 = PLANE ( 'NONE',  #242 ) ;
#229 = ORIENTED_EDGE ( 'NONE', *, *, #268, .T. ) ;
#230 = ORIENTED_EDGE ( 'NONE', *, *, #86, .T. ) ;
#231 = ORIENTED_EDGE ( 'NONE', *, *, #354, .F. ) ;
#232 = ORIENTED_EDGE ( 'NONE', *, *, #87, .T. ) ;
#233 = UNCERTAINTY_MEASURE_WITH_UNIT (LENGTH_MEASURE( 1.000000000000000100E-005 ), #44, 'distance_accuracy_value', 'NONE');
#234 = PRODUCT_CONTEXT ( 'NONE', #357, 'mechanical' ) ;
#235 = DIRECTION ( 'NONE',  ( 0.0000000000000000000, 0.0000000000000000000, -1.000000000000000000 ) ) ;
#236 = DIRECTION ( 'NONE',  ( 1.000000000000000000, 0.0000000000000000000, 0.0000000000000000000 ) ) ;
#237 = LINE ( 'NONE', #39, #35 ) ;
#238 = ORIENTED_EDGE ( 'NONE', *, *, #91, .T. ) ;
#239 = EDGE_LOOP ( 'NONE', ( #372, #260, #332, #229 ) ) ;
#240 =( LENGTH_UNIT ( ) NAMED_UNIT ( * ) SI_UNIT ( .MILLI., .METRE. ) );
#241 = CARTESIAN_POINT ( 'NONE',  ( 8.350000000000006800, 22.75000000000000000, 0.0000000000000000000 ) ) ;
#242 = AXIS2_PLACEMENT_3D ( 'NONE', #330, #83, #36 ) ;
#243 = ORIENTED_EDGE ( 'NONE', *, *, #69, .F. ) ;
#244 = DIRECTION ( 'NONE',  ( 0.0000000000000000000, 0.0000000000000000000, 1.000000000000000000 ) ) ;
#245 = ADVANCED_FACE ( 'NONE', ( #60 ), #78, .F. ) ;
#246 =( NAMED_UNIT ( * ) PLANE_ANGLE_UNIT ( ) SI_UNIT ( $, .RADIAN. ) );
#247 = CARTESIAN_POINT ( 'NONE',  ( 52.00000000000000000, 45.50000000000000000, 16.00000000000000000 ) ) ;
#248 =( LENGTH_UNIT ( ) NAMED_UNIT ( * ) SI_UNIT ( .MILLI., .METRE. ) );
#249 = CYLINDRICAL_SURFACE ( 'NONE', #291, 12.64999999999999900 ) ;
#250 = ORIENTED_EDGE ( 'NONE', *, *, #10, .F. ) ;
#251 = PLANE ( 'NONE',  #308 ) ;
#252 = DIRECTION ( 'NONE',  ( -0.0000000000000000000, -0.0000000000000000000, -1.000000000000000000 ) ) ;
#253 = DIRECTION ( 'NONE',  ( -0.0000000000000000000, -0.0000000000000000000, -1.000000000000000000 ) ) ;
#254 = AXIS2_PLACEMENT_3D ( 'NONE', #119, #65, #295 ) ;
#255 = ORIENTED_EDGE ( 'NONE', *, *, #354, .T. ) ;
#256 = CLOSED_SHELL ( 'NONE', ( #245, #51, #276, #42, #12, #49, #143, #223, #140, #163, #304, #365 ) ) ;
#257 = FACE_OUTER_BOUND ( 'NONE', #313, .T. ) ;
#258 = DIRECTION ( 'NONE',  ( -1.000000000000000000, 0.0000000000000000000, 0.0000000000000000000 ) ) ;
#259 = ORIENTED_EDGE ( 'NONE', *, *, #126, .F. ) ;
#260 = ORIENTED_EDGE ( 'NONE', *, *, #101, .F. ) ;
#261 = CARTESIAN_POINT ( 'NONE',  ( 0.0000000000000000000, 45.50000000000000000, 16.00000000000000000 ) ) ;
#262 = DIRECTION ( 'NONE',  ( 0.0000000000000000000, 0.0000000000000000000, 1.000000000000000000 ) ) ;
#263 = FACE_OUTER_BOUND ( 'NONE', #355, .T. ) ;
#264 = VERTEX_POINT ( 'NONE', #183 ) ;
#265 = EDGE_CURVE ( 'NONE', #21, #170, #175, .T. ) ;
#266 = CARTESIAN_POINT ( 'NONE',  ( 22.00000000000000400, 22.75000000000000000, 0.0000000000000000000 ) ) ;
#267 = CIRCLE ( 'NONE', #348, 12.64999999999999900 ) ;
#268 = EDGE_CURVE ( 'NONE', #106, #168, #237, .T. ) ;
#269 = VECTOR ( 'NONE', #296, 1000.000000000000000 ) ;
#270 = ORIENTED_EDGE ( 'NONE', *, *, #265, .F. ) ;
#271 = CARTESIAN_POINT ( 'NONE',  ( 0.0000000000000000000, 45.50000000000000000, 16.00000000000000000 ) ) ;
#272 = VERTEX_POINT ( 'NONE', #182 ) ;
#273 = CARTESIAN_POINT ( 'NONE',  ( 22.00000000000000400, 22.75000000000000000, 15.00000000000000000 ) ) ;
#274 = VECTOR ( 'NONE', #198, 1000.000000000000000 ) ;
#275 =( GEOMETRIC_REPRESENTATION_CONTEXT ( 3 ) GLOBAL_UNCERTAINTY_ASSIGNED_CONTEXT ( ( #233 ) ) GLOBAL_UNIT_ASSIGNED_CONTEXT ( ( #44, #246, #105 ) ) REPRESENTATION_CONTEXT ( 'NONE', 'WORKASPACE' ) );
#276 = ADVANCED_FACE ( 'NONE', ( #89 ), #166, .F. ) ;
#277 = CONICAL_SURFACE ( 'NONE', #321, 12.64999999999999900, 0.7853981633974509400 ) ;
#278 = FACE_BOUND ( 'NONE', #147, .T. ) ;
#279 = PLANE ( 'NONE',  #6 ) ;
#280 = VECTOR ( 'NONE', #58, 1000.000000000000000 ) ;
#281 = ORIENTED_EDGE ( 'NONE', *, *, #358, .F. ) ;
#282 = DIRECTION ( 'NONE',  ( 0.0000000000000000000, 1.000000000000000000, 0.0000000000000000000 ) ) ;
#283 = CARTESIAN_POINT ( 'NONE',  ( 35.64999999999999900, 22.75000000000000000, 0.0000000000000000000 ) ) ;
#284 = FILL_AREA_STYLE_COLOUR ( '', #129 ) ;
#285 = CARTESIAN_POINT ( 'NONE',  ( 22.00000000000000400, 22.75000000000000000, 0.0000000000000000000 ) ) ;
#286 = CARTESIAN_POINT ( 'NONE',  ( 0.0000000000000000000, 45.50000000000000000, 0.0000000000000000000 ) ) ;
#287 = VECTOR ( 'NONE', #352, 1000.000000000000000 ) ;
#288 = EDGE_CURVE ( 'NONE', #170, #168, #14, .T. ) ;
#289 = EDGE_CURVE ( 'NONE', #188, #272, #149, .T. ) ;
#290 = ORIENTED_EDGE ( 'NONE', *, *, #126, .T. ) ;
#291 = AXIS2_PLACEMENT_3D ( 'NONE', #285, #370, #99 ) ;
#292 =( NAMED_UNIT ( * ) PLANE_ANGLE_UNIT ( ) SI_UNIT ( $, .RADIAN. ) );
#293 = ORIENTED_EDGE ( 'NONE', *, *, #132, .T. ) ;
#294 = AXIS2_PLACEMENT_3D ( 'NONE', #200, #353, #180 ) ;
#295 = DIRECTION ( 'NONE',  ( -1.000000000000000000, 0.0000000000000000000, 0.0000000000000000000 ) ) ;
#296 = DIRECTION ( 'NONE',  ( -0.0000000000000000000, -0.0000000000000000000, -1.000000000000000000 ) ) ;
#297 = ORIENTED_EDGE ( 'NONE', *, *, #341, .T. ) ;
#298 = ORIENTED_EDGE ( 'NONE', *, *, #341, .F. ) ;
#299 = ORIENTED_EDGE ( 'NONE', *, *, #69, .T. ) ;
#300 = UNCERTAINTY_MEASURE_WITH_UNIT (LENGTH_MEASURE( 1.000000000000000100E-005 ), #248, 'distance_accuracy_value', 'NONE');
#301 = ORIENTED_EDGE ( 'NONE', *, *, #146, .T. ) ;
#302 = ORIENTED_EDGE ( 'NONE', *, *, #322, .T. ) ;
#303 = CIRCLE ( 'NONE', #28, 12.64999999999999900 ) ;
#304 = ADVANCED_FACE ( 'NONE', ( #98 ), #277, .F. ) ;
#305 = VERTEX_POINT ( 'NONE', #76 ) ;
#306 = DIRECTION ( 'NONE',  ( 0.7071067811865493500, 0.0000000000000000000, 0.7071067811865456900 ) ) ;
#307 = SURFACE_SIDE_STYLE ('',( #73 ) ) ;
#308 = AXIS2_PLACEMENT_3D ( 'NONE', #85, #309, #18 ) ;
#309 = DIRECTION ( 'NONE',  ( 0.0000000000000000000, 0.0000000000000000000, -1.000000000000000000 ) ) ;
#310 = CARTESIAN_POINT ( 'NONE',  ( 8.350000000000006800, 22.75000000000000000, 0.0000000000000000000 ) ) ;
#311 = AXIS2_PLACEMENT_3D ( 'NONE', #130, #7, #210 ) ;
#312 = FACE_OUTER_BOUND ( 'NONE', #136, .T. ) ;
#313 = EDGE_LOOP ( 'NONE', ( #270, #102, #62, #324 ) ) ;
#314 = DIRECTION ( 'NONE',  ( -1.000000000000000000, 0.0000000000000000000, 0.0000000000000000000 ) ) ;
#315 = AXIS2_PLACEMENT_3D ( 'NONE', #344, #30, #235 ) ;
#316 = CARTESIAN_POINT ( 'NONE',  ( 22.00000000000000400, 22.75000000000000000, 16.00000000000000000 ) ) ;
#317 = STYLED_ITEM ( 'NONE', ( #31 ), #162 ) ;
#318 = CONICAL_SURFACE ( 'NONE', #254, 13.64999999999999500, 0.7853981633974457300 ) ;
#319 = VECTOR ( 'NONE', #218, 1000.000000000000000 ) ;
#320 = CARTESIAN_POINT ( 'NONE',  ( 22.00000000000000400, 22.75000000000000000, 1.000000000000002700 ) ) ;
#321 = AXIS2_PLACEMENT_3D ( 'NONE', #273, #244, #107 ) ;
#322 = EDGE_CURVE ( 'NONE', #224, #264, #323, .T. ) ;
#323 = CIRCLE ( 'NONE', #368, 12.64999999999999900 ) ;
#324 = ORIENTED_EDGE ( 'NONE', *, *, #288, .F. ) ;
#325 = DIRECTION ( 'NONE',  ( -0.0000000000000000000, -0.0000000000000000000, -1.000000000000000000 ) ) ;
#326 = ORIENTED_EDGE ( 'NONE', *, *, #87, .F. ) ;
#327 = ORIENTED_EDGE ( 'NONE', *, *, #322, .F. ) ;
#328 = VERTEX_POINT ( 'NONE', #92 ) ;
#329 = DIRECTION ( 'NONE',  ( 0.7071067811865456900, 8.659560562354911900E-017, -0.7071067811865493500 ) ) ;
#330 = CARTESIAN_POINT ( 'NONE',  ( 0.0000000000000000000, 0.0000000000000000000, 0.0000000000000000000 ) ) ;
#331 = LINE ( 'NONE', #141, #33 ) ;
#332 = ORIENTED_EDGE ( 'NONE', *, *, #154, .F. ) ;
#333 = DIRECTION ( 'NONE',  ( -1.000000000000000000, 0.0000000000000000000, 0.0000000000000000000 ) ) ;
#334 = EDGE_LOOP ( 'NONE', ( #219, #255, #150, #238 ) ) ;
#335 = CARTESIAN_POINT ( 'NONE',  ( 0.0000000000000000000, 0.0000000000000000000, 0.0000000000000000000 ) ) ;
#336 = COLOUR_RGB ( '',1.000000000000000000, 1.000000000000000000, 1.000000000000000000 ) ;
#337 = DIRECTION ( 'NONE',  ( 0.0000000000000000000, 0.0000000000000000000, -1.000000000000000000 ) ) ;
#338 = AXIS2_PLACEMENT_3D ( 'NONE', #266, #133, #356 ) ;
#339 = CIRCLE ( 'NONE', #371, 12.64999999999999900 ) ;
#340 = VECTOR ( 'NONE', #329, 1000.000000000000000 ) ;
#341 = EDGE_CURVE ( 'NONE', #305, #40, #267, .T. ) ;
#342 = VERTEX_POINT ( 'NONE', #97 ) ;
#343 = DIRECTION ( 'NONE',  ( -1.000000000000000000, 0.0000000000000000000, 0.0000000000000000000 ) ) ;
#344 = CARTESIAN_POINT ( 'NONE',  ( 0.0000000000000000000, 0.0000000000000000000, 16.00000000000000000 ) ) ;
#345 = AXIS2_PLACEMENT_3D ( 'NONE', #1, #252, #90 ) ;
#346 = SURFACE_STYLE_USAGE ( .BOTH. , #307 ) ;
#347 = APPLICATION_PROTOCOL_DEFINITION ( 'draft international standard', 'automotive_design', 1998, #61 ) ;
#348 = AXIS2_PLACEMENT_3D ( 'NONE', #23, #197, #343 ) ;
#349 = VECTOR ( 'NONE', #179, 1000.000000000000000 ) ;
#350 = VECTOR ( 'NONE', #227, 1000.000000000000000 ) ;
#351 = CONICAL_SURFACE ( 'NONE', #173, 12.64999999999999900, 0.7853981633974509400 ) ;
#352 = DIRECTION ( 'NONE',  ( 0.0000000000000000000, 1.000000000000000000, 0.0000000000000000000 ) ) ;
#353 = DIRECTION ( 'NONE',  ( -0.0000000000000000000, -0.0000000000000000000, 1.000000000000000000 ) ) ;
#354 = EDGE_CURVE ( 'NONE', #272, #106, #184, .T. ) ;
#355 = EDGE_LOOP ( 'NONE', ( #131, #362, #22, #220 ) ) ;
#356 = DIRECTION ( 'NONE',  ( 1.000000000000000000, 0.0000000000000000000, 0.0000000000000000000 ) ) ;
#357 = APPLICATION_CONTEXT ( 'automotive_design' ) ;
#358 = EDGE_CURVE ( 'NONE', #40, #305, #339, .T. ) ;
#359 = FACE_OUTER_BOUND ( 'NONE', #20, .T. ) ;
#360 = ORIENTED_EDGE ( 'NONE', *, *, #86, .F. ) ;
#361 = AXIS2_PLACEMENT_3D ( 'NONE', #37, #213, #314 ) ;
#362 = ORIENTED_EDGE ( 'NONE', *, *, #132, .F. ) ;
#363 = DIRECTION ( 'NONE',  ( -0.0000000000000000000, -0.0000000000000000000, 1.000000000000000000 ) ) ;
#364 = VERTEX_POINT ( 'NONE', #204 ) ;
#365 = ADVANCED_FACE ( 'NONE', ( #312 ), #318, .F. ) ;
#366 = CARTESIAN_POINT ( 'NONE',  ( 0.0000000000000000000, 0.0000000000000000000, 16.00000000000000000 ) ) ;
#367 = ORIENTED_EDGE ( 'NONE', *, *, #172, .T. ) ;
#368 = AXIS2_PLACEMENT_3D ( 'NONE', #320, #151, #258 ) ;
#369 = EDGE_LOOP ( 'NONE', ( #124, #103, #231, #293 ) ) ;
#370 = DIRECTION ( 'NONE',  ( -0.0000000000000000000, -0.0000000000000000000, 1.000000000000000000 ) ) ;
#371 = AXIS2_PLACEMENT_3D ( 'NONE', #32, #4, #333 ) ;
#372 = ORIENTED_EDGE ( 'NONE', *, *, #112, .T. ) ;
#373 = EDGE_LOOP ( 'NONE', ( #250, #281, #290, #82 ) ) ;
#374 = ORIENTED_EDGE ( 'NONE', *, *, #146, .F. ) ;
#375 = PRESENTATION_LAYER_ASSIGNMENT (  '', '', ( #50 ) ) ;
#376 =( NAMED_UNIT ( * ) SI_UNIT ( $, .STERADIAN. ) SOLID_ANGLE_UNIT ( ) );
ENDSEC;
END-ISO-10303-21;
