ISO-10303-21;
HEADER;
/* Generated by software containing ST-Developer
 * from STEP Tools, Inc. (www.steptools.com) 
 */

FILE_DESCRIPTION(
/* description */ ('Alibre Inc.'),
/* implementation_level */ '2;1');

FILE_NAME(
/* name */ 'export-BCB050A9-A208-496D-BDEA-475BAF1C8878',
/* time_stamp */ '2024-08-17T19:21:31+02:00',
/* author */ (''),
/* organization */ (''),
/* preprocessor_version */ 'ST-DEVELOPER v17',
/* originating_system */ 'Alibre',
/* authorisation */ '');

FILE_SCHEMA (('CONFIG_CONTROL_DESIGN'));
ENDSEC;

DATA;
#10=MECHANICAL_CONTEXT('detailed design',#18,'mechanical');
#11=PRODUCT_RELATED_PRODUCT_CATEGORY('detail','',(#98));
#12=CC_DESIGN_SECURITY_CLASSIFICATION(#14,(#97));
#13=SECURITY_CLASSIFICATION_LEVEL('unclassified');
#14=SECURITY_CLASSIFICATION('name','Security for version',#13);
#15=SHAPE_DEFINITION_REPRESENTATION(#16,#516);
#16=PRODUCT_DEFINITION_SHAPE('','DefinitionDesc',#96);
#17=APPLICATION_PROTOCOL_DEFINITION('AP definition status',
'config_control_design',1994,#18);
#18=APPLICATION_CONTEXT(
'control the configuration of three dimensional design');
#19=DESIGN_CONTEXT('detailed design',#18,'design');
#20=PERSON_AND_ORGANIZATION_ROLE('creator');
#21=PERSON_AND_ORGANIZATION_ROLE('classification_officer');
#22=PERSON_AND_ORGANIZATION_ROLE('creator');
#23=PERSON_AND_ORGANIZATION_ROLE('design_supplier');
#24=PERSON_AND_ORGANIZATION_ROLE('design_owner');
#25=CC_DESIGN_PERSON_AND_ORGANIZATION_ASSIGNMENT(#57,#20,(#96));
#26=CC_DESIGN_PERSON_AND_ORGANIZATION_ASSIGNMENT(#60,#21,(#14));
#27=CC_DESIGN_PERSON_AND_ORGANIZATION_ASSIGNMENT(#61,#22,(#97));
#28=CC_DESIGN_PERSON_AND_ORGANIZATION_ASSIGNMENT(#62,#23,(#97));
#29=CC_DESIGN_PERSON_AND_ORGANIZATION_ASSIGNMENT(#63,#24,(#98));
#30=DATE_TIME_ROLE('creation_date');
#31=DATE_TIME_ROLE('classification_date');
#32=CC_DESIGN_DATE_AND_TIME_ASSIGNMENT(#86,#30,(#96));
#33=CC_DESIGN_DATE_AND_TIME_ASSIGNMENT(#89,#31,(#14));
#34=CC_DESIGN_APPROVAL(#93,(#96));
#35=CC_DESIGN_APPROVAL(#94,(#97));
#36=CC_DESIGN_APPROVAL(#95,(#14));
#37=APPROVAL_PERSON_ORGANIZATION(#56,#93,#64);
#38=APPROVAL_PERSON_ORGANIZATION(#58,#94,#65);
#39=APPROVAL_PERSON_ORGANIZATION(#59,#95,#66);
#40=ORGANIZATION('DEFINITION_APPROVEDBY_ORG_ID',
'DEFINITION_APPROVEDBY_ORG_NAME','DEFINITION_APPROVEDBY_ORG_DESCR');
#41=ORGANIZATION('DEF_CREATOR_ORG_ID','DEF_CREATOR_ORG_NAME',
'DEF_CREATOR_ORG_DESCR');
#42=ORGANIZATION('APPROVEDBY_ORG_ID','APPROVEDBY_ORG_NAME',
'APPROVEDBY_ORG_DESCR');
#43=ORGANIZATION('SECURITY_APPROVEDBY_ORG_ID',
'SECURITY_APPROVEDBY_ORG_NAME','SECURITY_APPROVEDBY_ORG_DESCR');
#44=ORGANIZATION('CLASSOFFICER_ORG_ID','CLASSOFFICER_ORG_NAME',
'CLASSOFFICER_ORG_DESCR');
#45=ORGANIZATION('CREATOR_ORG_ID','CREATOR_ORG_NAME',
'CREATOR_ORG_DESCR');
#46=ORGANIZATION('SUPPLIER_ORG_ID','SUPPLIER_ORG_NAME',
'SUPPLIER_ORG_DESCR');
#47=ORGANIZATION('OWNER_ORG_ID','OWNER_ORG_NAME','OWNER_ORG_DESCR');
#48=PERSON('DEFINITION_approverID','DEFINITION_APPROVEDBY_LASTNAME',
'DEFINITION_APPROVEDBY_FIRSTNAME',$,$,$);
#49=PERSON('DEF_createrID','DEF_CREATOR_LASTNAME',
'DEF_CREATOR_FIRSTNAME',$,$,$);
#50=PERSON('approverID','APPROVEDBY_LASTNAME','APPROVEDBY_FIRSTNAME',$,
$,$);
#51=PERSON('SECURITY_approverID','SECURITY_LASTNAME',
'SECURITY_APPROVEDBY_FIRSTNAME',$,$,$);
#52=PERSON('classifierID','CLASSOFFICER_LASTNAME',
'CLASSOFFICER_FIRSTNAME',$,$,$);
#53=PERSON('createrID','CREATOR_LASTNAME','CREATOR_FIRSTNAME',$,$,$);
#54=PERSON('supplierID','SUPPLIER_LASTNAME','SUPPLIER_FIRSTNAME',$,$,$);
#55=PERSON('ownerID','OWNER_LASTNAME','OWNER_FIRSTNAME',$,$,$);
#56=PERSON_AND_ORGANIZATION(#48,#40);
#57=PERSON_AND_ORGANIZATION(#49,#41);
#58=PERSON_AND_ORGANIZATION(#50,#42);
#59=PERSON_AND_ORGANIZATION(#51,#43);
#60=PERSON_AND_ORGANIZATION(#52,#44);
#61=PERSON_AND_ORGANIZATION(#53,#45);
#62=PERSON_AND_ORGANIZATION(#54,#46);
#63=PERSON_AND_ORGANIZATION(#55,#47);
#64=APPROVAL_ROLE('definition_approval');
#65=APPROVAL_ROLE('version_approval');
#66=APPROVAL_ROLE('security_approval');
#67=APPROVAL_DATE_TIME(#85,#93);
#68=APPROVAL_DATE_TIME(#87,#94);
#69=APPROVAL_DATE_TIME(#88,#95);
#70=COORDINATED_UNIVERSAL_TIME_OFFSET(2,0,.AHEAD.);
#71=COORDINATED_UNIVERSAL_TIME_OFFSET(2,0,.AHEAD.);
#72=COORDINATED_UNIVERSAL_TIME_OFFSET(2,0,.AHEAD.);
#73=COORDINATED_UNIVERSAL_TIME_OFFSET(2,0,.AHEAD.);
#74=COORDINATED_UNIVERSAL_TIME_OFFSET(2,0,.AHEAD.);
#75=LOCAL_TIME(12,37,11.,#70);
#76=LOCAL_TIME(12,37,11.,#71);
#77=LOCAL_TIME(12,37,11.,#72);
#78=LOCAL_TIME(12,37,11.,#73);
#79=LOCAL_TIME(12,37,11.,#74);
#80=CALENDAR_DATE(2024,17,8);
#81=CALENDAR_DATE(2024,17,8);
#82=CALENDAR_DATE(2024,17,8);
#83=CALENDAR_DATE(2024,17,8);
#84=CALENDAR_DATE(2024,17,8);
#85=DATE_AND_TIME(#80,#75);
#86=DATE_AND_TIME(#81,#76);
#87=DATE_AND_TIME(#82,#77);
#88=DATE_AND_TIME(#83,#78);
#89=DATE_AND_TIME(#84,#79);
#90=APPROVAL_STATUS('not_yet_approved');
#91=APPROVAL_STATUS('not_yet_approved');
#92=APPROVAL_STATUS('not_yet_approved');
#93=APPROVAL(#90,'defintion approval');
#94=APPROVAL(#91,'version approval');
#95=APPROVAL(#92,'security approval');
#96=PRODUCT_DEFINITION('DefinitionID','DefinitionDesc',#97,#19);
#97=PRODUCT_DEFINITION_FORMATION_WITH_SPECIFIED_SOURCE(
'PRODUCT_VERSION_ID','PRODUCT_VERSION_DESCR',#98,.NOT_KNOWN.);
#98=PRODUCT('','Support_nozzle_1400_variable_part2','',(#10));
#99=(
LENGTH_UNIT()
NAMED_UNIT(*)
SI_UNIT(.MILLI.,.METRE.)
);
#100=(
NAMED_UNIT(*)
PLANE_ANGLE_UNIT()
SI_UNIT($,.RADIAN.)
);
#101=(
NAMED_UNIT(*)
SI_UNIT($,.STERADIAN.)
SOLID_ANGLE_UNIT()
);
#102=UNCERTAINTY_MEASURE_WITH_UNIT(LENGTH_MEASURE(1.E-6),#99,
'DISTANCE_ACCURACY_VALUE',
'Maximum model space distance between geometric entities at asserted c
onnectivities');
#103=(
GEOMETRIC_REPRESENTATION_CONTEXT(3)
GLOBAL_UNCERTAINTY_ASSIGNED_CONTEXT((#102))
GLOBAL_UNIT_ASSIGNED_CONTEXT((#101,#100,#99))
REPRESENTATION_CONTEXT('ID1','3D')
);
#104=CYLINDRICAL_SURFACE('',#349,8.);
#105=CYLINDRICAL_SURFACE('',#351,7.25);
#106=CYLINDRICAL_SURFACE('',#357,5.5);
#107=CYLINDRICAL_SURFACE('',#362,3.);
#108=CYLINDRICAL_SURFACE('',#363,5.5);
#109=CYLINDRICAL_SURFACE('',#368,3.);
#110=CIRCLE('',#347,8.);
#111=CIRCLE('',#348,7.25);
#112=CIRCLE('',#350,8.);
#113=CIRCLE('',#352,7.25);
#114=CIRCLE('',#354,3.);
#115=CIRCLE('',#356,3.);
#116=CIRCLE('',#358,5.5);
#117=CIRCLE('',#359,5.5);
#118=CIRCLE('',#361,3.);
#119=CIRCLE('',#364,5.5);
#120=CIRCLE('',#365,5.5);
#121=CIRCLE('',#367,3.);
#122=VERTEX_POINT('',#438);
#123=VERTEX_POINT('',#439);
#124=VERTEX_POINT('',#441);
#125=VERTEX_POINT('',#443);
#126=VERTEX_POINT('',#447);
#127=VERTEX_POINT('',#449);
#128=VERTEX_POINT('',#453);
#129=VERTEX_POINT('',#455);
#130=VERTEX_POINT('',#459);
#131=VERTEX_POINT('',#461);
#132=VERTEX_POINT('',#463);
#133=VERTEX_POINT('',#466);
#134=VERTEX_POINT('',#468);
#135=VERTEX_POINT('',#470);
#136=VERTEX_POINT('',#472);
#137=VERTEX_POINT('',#475);
#138=VERTEX_POINT('',#478);
#139=VERTEX_POINT('',#480);
#140=VERTEX_POINT('',#483);
#141=VERTEX_POINT('',#487);
#142=VERTEX_POINT('',#489);
#143=VERTEX_POINT('',#492);
#144=VERTEX_POINT('',#496);
#145=VERTEX_POINT('',#500);
#146=VECTOR('',#374,1.);
#147=VECTOR('',#377,1.);
#148=VECTOR('',#382,1.);
#149=VECTOR('',#385,1.);
#150=VECTOR('',#388,1.);
#151=VECTOR('',#391,1.);
#152=VECTOR('',#395,1.);
#153=VECTOR('',#396,1.);
#154=VECTOR('',#397,1.);
#155=VECTOR('',#399,1.);
#156=VECTOR('',#400,1.);
#157=VECTOR('',#401,1.);
#158=VECTOR('',#402,1.);
#159=VECTOR('',#428,1.);
#160=VECTOR('',#429,1.);
#161=VECTOR('',#431,1.);
#162=VECTOR('',#432,1.);
#163=VECTOR('',#434,1.);
#164=LINE('',#437,#146);
#165=LINE('',#442,#147);
#166=LINE('',#446,#148);
#167=LINE('',#450,#149);
#168=LINE('',#452,#150);
#169=LINE('',#456,#151);
#170=LINE('',#460,#152);
#171=LINE('',#462,#153);
#172=LINE('',#464,#154);
#173=LINE('',#467,#155);
#174=LINE('',#469,#156);
#175=LINE('',#471,#157);
#176=LINE('',#473,#158);
#177=LINE('',#495,#159);
#178=LINE('',#497,#160);
#179=LINE('',#499,#161);
#180=LINE('',#501,#162);
#181=LINE('',#503,#163);
#182=EDGE_CURVE('',#122,#123,#164,.T.);
#183=EDGE_CURVE('',#122,#124,#110,.T.);
#184=EDGE_CURVE('',#125,#124,#165,.T.);
#185=EDGE_CURVE('',#123,#125,#111,.T.);
#186=EDGE_CURVE('',#126,#122,#166,.T.);
#187=EDGE_CURVE('',#127,#126,#112,.T.);
#188=EDGE_CURVE('',#124,#127,#167,.T.);
#189=EDGE_CURVE('',#128,#125,#168,.T.);
#190=EDGE_CURVE('',#129,#128,#113,.T.);
#191=EDGE_CURVE('',#123,#129,#169,.T.);
#192=EDGE_CURVE('',#130,#130,#114,.T.);
#193=EDGE_CURVE('',#127,#131,#170,.T.);
#194=EDGE_CURVE('',#131,#132,#171,.T.);
#195=EDGE_CURVE('',#132,#128,#172,.T.);
#196=EDGE_CURVE('',#133,#126,#170,.T.);
#197=EDGE_CURVE('',#133,#134,#173,.T.);
#198=EDGE_CURVE('',#134,#135,#174,.T.);
#199=EDGE_CURVE('',#131,#135,#175,.T.);
#200=EDGE_CURVE('',#129,#136,#172,.T.);
#201=EDGE_CURVE('',#136,#133,#176,.T.);
#202=EDGE_CURVE('',#137,#137,#115,.T.);
#203=EDGE_CURVE('',#138,#138,#116,.T.);
#204=EDGE_CURVE('',#139,#139,#117,.T.);
#205=EDGE_CURVE('',#140,#140,#118,.T.);
#206=EDGE_CURVE('',#141,#141,#119,.T.);
#207=EDGE_CURVE('',#142,#142,#120,.T.);
#208=EDGE_CURVE('',#143,#143,#121,.T.);
#209=EDGE_CURVE('',#135,#144,#177,.T.);
#210=EDGE_CURVE('',#132,#144,#178,.T.);
#211=EDGE_CURVE('',#144,#145,#179,.T.);
#212=EDGE_CURVE('',#136,#145,#180,.T.);
#213=EDGE_CURVE('',#145,#134,#181,.T.);
#214=ORIENTED_EDGE('',*,*,#182,.F.);
#215=ORIENTED_EDGE('',*,*,#183,.T.);
#216=ORIENTED_EDGE('',*,*,#184,.F.);
#217=ORIENTED_EDGE('',*,*,#185,.F.);
#218=ORIENTED_EDGE('',*,*,#186,.F.);
#219=ORIENTED_EDGE('',*,*,#187,.F.);
#220=ORIENTED_EDGE('',*,*,#188,.F.);
#221=ORIENTED_EDGE('',*,*,#183,.F.);
#222=ORIENTED_EDGE('',*,*,#185,.T.);
#223=ORIENTED_EDGE('',*,*,#189,.F.);
#224=ORIENTED_EDGE('',*,*,#190,.F.);
#225=ORIENTED_EDGE('',*,*,#191,.F.);
#226=ORIENTED_EDGE('',*,*,#192,.T.);
#227=ORIENTED_EDGE('',*,*,#184,.T.);
#228=ORIENTED_EDGE('',*,*,#188,.T.);
#229=ORIENTED_EDGE('',*,*,#193,.T.);
#230=ORIENTED_EDGE('',*,*,#194,.T.);
#231=ORIENTED_EDGE('',*,*,#195,.T.);
#232=ORIENTED_EDGE('',*,*,#189,.T.);
#233=ORIENTED_EDGE('',*,*,#187,.T.);
#234=ORIENTED_EDGE('',*,*,#196,.F.);
#235=ORIENTED_EDGE('',*,*,#197,.T.);
#236=ORIENTED_EDGE('',*,*,#198,.T.);
#237=ORIENTED_EDGE('',*,*,#199,.F.);
#238=ORIENTED_EDGE('',*,*,#193,.F.);
#239=ORIENTED_EDGE('',*,*,#182,.T.);
#240=ORIENTED_EDGE('',*,*,#191,.T.);
#241=ORIENTED_EDGE('',*,*,#200,.T.);
#242=ORIENTED_EDGE('',*,*,#201,.T.);
#243=ORIENTED_EDGE('',*,*,#196,.T.);
#244=ORIENTED_EDGE('',*,*,#186,.T.);
#245=ORIENTED_EDGE('',*,*,#202,.T.);
#246=ORIENTED_EDGE('',*,*,#203,.F.);
#247=ORIENTED_EDGE('',*,*,#204,.F.);
#248=ORIENTED_EDGE('',*,*,#205,.F.);
#249=ORIENTED_EDGE('',*,*,#203,.T.);
#250=ORIENTED_EDGE('',*,*,#205,.T.);
#251=ORIENTED_EDGE('',*,*,#192,.F.);
#252=ORIENTED_EDGE('',*,*,#206,.F.);
#253=ORIENTED_EDGE('',*,*,#207,.F.);
#254=ORIENTED_EDGE('',*,*,#208,.F.);
#255=ORIENTED_EDGE('',*,*,#206,.T.);
#256=ORIENTED_EDGE('',*,*,#208,.T.);
#257=ORIENTED_EDGE('',*,*,#202,.F.);
#258=ORIENTED_EDGE('',*,*,#209,.T.);
#259=ORIENTED_EDGE('',*,*,#210,.F.);
#260=ORIENTED_EDGE('',*,*,#194,.F.);
#261=ORIENTED_EDGE('',*,*,#199,.T.);
#262=ORIENTED_EDGE('',*,*,#190,.T.);
#263=ORIENTED_EDGE('',*,*,#195,.F.);
#264=ORIENTED_EDGE('',*,*,#210,.T.);
#265=ORIENTED_EDGE('',*,*,#211,.T.);
#266=ORIENTED_EDGE('',*,*,#212,.F.);
#267=ORIENTED_EDGE('',*,*,#200,.F.);
#268=ORIENTED_EDGE('',*,*,#213,.T.);
#269=ORIENTED_EDGE('',*,*,#197,.F.);
#270=ORIENTED_EDGE('',*,*,#201,.F.);
#271=ORIENTED_EDGE('',*,*,#212,.T.);
#272=ORIENTED_EDGE('',*,*,#204,.T.);
#273=ORIENTED_EDGE('',*,*,#207,.T.);
#274=ORIENTED_EDGE('',*,*,#198,.F.);
#275=ORIENTED_EDGE('',*,*,#213,.F.);
#276=ORIENTED_EDGE('',*,*,#211,.F.);
#277=ORIENTED_EDGE('',*,*,#209,.F.);
#278=EDGE_LOOP('',(#214,#215,#216,#217));
#279=EDGE_LOOP('',(#218,#219,#220,#221));
#280=EDGE_LOOP('',(#222,#223,#224,#225));
#281=EDGE_LOOP('',(#226));
#282=EDGE_LOOP('',(#227,#228,#229,#230,#231,#232));
#283=EDGE_LOOP('',(#233,#234,#235,#236,#237,#238));
#284=EDGE_LOOP('',(#239,#240,#241,#242,#243,#244));
#285=EDGE_LOOP('',(#245));
#286=EDGE_LOOP('',(#246));
#287=EDGE_LOOP('',(#247));
#288=EDGE_LOOP('',(#248));
#289=EDGE_LOOP('',(#249));
#290=EDGE_LOOP('',(#250));
#291=EDGE_LOOP('',(#251));
#292=EDGE_LOOP('',(#252));
#293=EDGE_LOOP('',(#253));
#294=EDGE_LOOP('',(#254));
#295=EDGE_LOOP('',(#255));
#296=EDGE_LOOP('',(#256));
#297=EDGE_LOOP('',(#257));
#298=EDGE_LOOP('',(#258,#259,#260,#261));
#299=EDGE_LOOP('',(#262,#263,#264,#265,#266,#267));
#300=EDGE_LOOP('',(#268,#269,#270,#271));
#301=EDGE_LOOP('',(#272));
#302=EDGE_LOOP('',(#273));
#303=EDGE_LOOP('',(#274,#275,#276,#277));
#304=FACE_BOUND('',#278,.T.);
#305=FACE_BOUND('',#279,.T.);
#306=FACE_BOUND('',#280,.T.);
#307=FACE_BOUND('',#281,.T.);
#308=FACE_BOUND('',#282,.T.);
#309=FACE_BOUND('',#283,.T.);
#310=FACE_BOUND('',#284,.T.);
#311=FACE_BOUND('',#285,.T.);
#312=FACE_BOUND('',#286,.T.);
#313=FACE_BOUND('',#287,.T.);
#314=FACE_BOUND('',#288,.T.);
#315=FACE_BOUND('',#289,.T.);
#316=FACE_BOUND('',#290,.T.);
#317=FACE_BOUND('',#291,.T.);
#318=FACE_BOUND('',#292,.T.);
#319=FACE_BOUND('',#293,.T.);
#320=FACE_BOUND('',#294,.T.);
#321=FACE_BOUND('',#295,.T.);
#322=FACE_BOUND('',#296,.T.);
#323=FACE_BOUND('',#297,.T.);
#324=FACE_BOUND('',#298,.T.);
#325=FACE_BOUND('',#299,.T.);
#326=FACE_BOUND('',#300,.T.);
#327=FACE_BOUND('',#301,.T.);
#328=FACE_BOUND('',#302,.T.);
#329=FACE_BOUND('',#303,.T.);
#330=ADVANCED_FACE('',(#304),#505,.F.);
#331=ADVANCED_FACE('',(#305),#104,.F.);
#332=ADVANCED_FACE('',(#306),#105,.F.);
#333=ADVANCED_FACE('',(#307,#308),#506,.F.);
#334=ADVANCED_FACE('',(#309),#507,.T.);
#335=ADVANCED_FACE('',(#310,#311),#506,.F.);
#336=ADVANCED_FACE('',(#312,#313),#106,.F.);
#337=ADVANCED_FACE('',(#314,#315),#508,.F.);
#338=ADVANCED_FACE('',(#316,#317),#107,.F.);
#339=ADVANCED_FACE('',(#318,#319),#108,.F.);
#340=ADVANCED_FACE('',(#320,#321),#509,.F.);
#341=ADVANCED_FACE('',(#322,#323),#109,.F.);
#342=ADVANCED_FACE('',(#324),#510,.T.);
#343=ADVANCED_FACE('',(#325),#511,.T.);
#344=ADVANCED_FACE('',(#326),#512,.T.);
#345=ADVANCED_FACE('',(#327,#328,#329),#513,.T.);
#346=AXIS2_PLACEMENT_3D('',#436,#373,$);
#347=AXIS2_PLACEMENT_3D('',#440,#375,#376);
#348=AXIS2_PLACEMENT_3D('',#444,#378,#379);
#349=AXIS2_PLACEMENT_3D('',#445,#380,#381);
#350=AXIS2_PLACEMENT_3D('',#448,#383,#384);
#351=AXIS2_PLACEMENT_3D('',#451,#386,#387);
#352=AXIS2_PLACEMENT_3D('',#454,#389,#390);
#353=AXIS2_PLACEMENT_3D('',#457,#392,$);
#354=AXIS2_PLACEMENT_3D('',#458,#393,#394);
#355=AXIS2_PLACEMENT_3D('',#465,#398,$);
#356=AXIS2_PLACEMENT_3D('',#474,#403,#404);
#357=AXIS2_PLACEMENT_3D('',#476,#405,#406);
#358=AXIS2_PLACEMENT_3D('',#477,#407,#408);
#359=AXIS2_PLACEMENT_3D('',#479,#409,#410);
#360=AXIS2_PLACEMENT_3D('',#481,#411,$);
#361=AXIS2_PLACEMENT_3D('',#482,#412,#413);
#362=AXIS2_PLACEMENT_3D('',#484,#414,#415);
#363=AXIS2_PLACEMENT_3D('',#485,#416,#417);
#364=AXIS2_PLACEMENT_3D('',#486,#418,#419);
#365=AXIS2_PLACEMENT_3D('',#488,#420,#421);
#366=AXIS2_PLACEMENT_3D('',#490,#422,$);
#367=AXIS2_PLACEMENT_3D('',#491,#423,#424);
#368=AXIS2_PLACEMENT_3D('',#493,#425,#426);
#369=AXIS2_PLACEMENT_3D('',#494,#427,$);
#370=AXIS2_PLACEMENT_3D('',#498,#430,$);
#371=AXIS2_PLACEMENT_3D('',#502,#433,$);
#372=AXIS2_PLACEMENT_3D('',#504,#435,$);
#373=DIRECTION('',(0.,-1.,0.));
#374=DIRECTION('',(1.,0.,0.));
#375=DIRECTION('',(0.,1.,0.));
#376=DIRECTION('',(8.,0.,0.));
#377=DIRECTION('',(1.,0.,0.));
#378=DIRECTION('',(0.,1.,0.));
#379=DIRECTION('',(7.25,0.,0.));
#380=DIRECTION('',(0.,-1.,0.));
#381=DIRECTION('',(8.,0.,0.));
#382=DIRECTION('',(0.,-1.,0.));
#383=DIRECTION('',(0.,-1.,0.));
#384=DIRECTION('',(8.,0.,0.));
#385=DIRECTION('',(0.,1.,0.));
#386=DIRECTION('',(0.,-1.,0.));
#387=DIRECTION('',(7.25,0.,0.));
#388=DIRECTION('',(0.,1.,0.));
#389=DIRECTION('',(0.,1.,0.));
#390=DIRECTION('',(7.25,0.,0.));
#391=DIRECTION('',(0.,-1.,0.));
#392=DIRECTION('',(0.,0.,1.));
#393=DIRECTION('',(0.,0.,1.));
#394=DIRECTION('',(0.,3.,0.));
#395=DIRECTION('',(1.,0.,0.));
#396=DIRECTION('',(0.,-1.,0.));
#397=DIRECTION('',(-1.,0.,0.));
#398=DIRECTION('',(0.,1.,0.));
#399=DIRECTION('',(0.,0.,1.));
#400=DIRECTION('',(1.,0.,0.));
#401=DIRECTION('',(0.,0.,1.));
#402=DIRECTION('',(0.,1.,0.));
#403=DIRECTION('',(0.,0.,1.));
#404=DIRECTION('',(0.,3.,0.));
#405=DIRECTION('',(0.,0.,-1.));
#406=DIRECTION('',(0.,5.5,0.));
#407=DIRECTION('',(0.,0.,1.));
#408=DIRECTION('',(0.,5.5,0.));
#409=DIRECTION('',(0.,0.,-1.));
#410=DIRECTION('',(0.,5.5,0.));
#411=DIRECTION('',(0.,0.,-1.));
#412=DIRECTION('',(0.,0.,1.));
#413=DIRECTION('',(0.,3.,0.));
#414=DIRECTION('',(0.,0.,-1.));
#415=DIRECTION('',(0.,3.,0.));
#416=DIRECTION('',(0.,0.,-1.));
#417=DIRECTION('',(0.,5.5,0.));
#418=DIRECTION('',(0.,0.,1.));
#419=DIRECTION('',(0.,5.5,0.));
#420=DIRECTION('',(0.,0.,-1.));
#421=DIRECTION('',(0.,5.5,0.));
#422=DIRECTION('',(0.,0.,-1.));
#423=DIRECTION('',(0.,0.,1.));
#424=DIRECTION('',(0.,3.,0.));
#425=DIRECTION('',(0.,0.,-1.));
#426=DIRECTION('',(0.,3.,0.));
#427=DIRECTION('',(1.,0.,0.));
#428=DIRECTION('',(0.,-1.,0.));
#429=DIRECTION('',(0.,0.,1.));
#430=DIRECTION('',(0.,-1.,0.));
#431=DIRECTION('',(-1.,0.,0.));
#432=DIRECTION('',(0.,0.,1.));
#433=DIRECTION('',(-1.,0.,0.));
#434=DIRECTION('',(0.,1.,0.));
#435=DIRECTION('',(0.,0.,1.));
#436=CARTESIAN_POINT('',(30.,9.,0.));
#437=CARTESIAN_POINT('',(30.,9.,0.));
#438=CARTESIAN_POINT('',(22.,9.,0.));
#439=CARTESIAN_POINT('',(22.75,9.,0.));
#440=CARTESIAN_POINT('',(30.,9.,0.));
#441=CARTESIAN_POINT('',(38.,9.,0.));
#442=CARTESIAN_POINT('',(30.,9.,0.));
#443=CARTESIAN_POINT('',(37.25,9.,0.));
#444=CARTESIAN_POINT('',(30.,9.,0.));
#445=CARTESIAN_POINT('',(30.,20.,0.));
#446=CARTESIAN_POINT('',(22.,14.5,0.));
#447=CARTESIAN_POINT('',(22.,20.,0.));
#448=CARTESIAN_POINT('',(30.,20.,0.));
#449=CARTESIAN_POINT('',(38.,20.,0.));
#450=CARTESIAN_POINT('',(38.,14.5,0.));
#451=CARTESIAN_POINT('',(30.,20.,0.));
#452=CARTESIAN_POINT('',(37.25,20.,0.));
#453=CARTESIAN_POINT('',(37.25,0.,0.));
#454=CARTESIAN_POINT('',(30.,0.,0.));
#455=CARTESIAN_POINT('',(22.75,0.,0.));
#456=CARTESIAN_POINT('',(22.75,20.,0.));
#457=CARTESIAN_POINT('',(30.,10.,0.));
#458=CARTESIAN_POINT('',(52.5,10.,0.));
#459=CARTESIAN_POINT('',(52.5,13.,0.));
#460=CARTESIAN_POINT('',(0.,20.,0.));
#461=CARTESIAN_POINT('',(60.,20.,0.));
#462=CARTESIAN_POINT('',(60.,20.,0.));
#463=CARTESIAN_POINT('',(60.,0.,0.));
#464=CARTESIAN_POINT('',(60.,0.,0.));
#465=CARTESIAN_POINT('',(30.,20.,0.));
#466=CARTESIAN_POINT('',(0.,20.,0.));
#467=CARTESIAN_POINT('',(0.,20.,0.));
#468=CARTESIAN_POINT('',(0.,20.,20.));
#469=CARTESIAN_POINT('',(0.,20.,20.));
#470=CARTESIAN_POINT('',(60.,20.,20.));
#471=CARTESIAN_POINT('',(60.,20.,0.));
#472=CARTESIAN_POINT('',(0.,0.,0.));
#473=CARTESIAN_POINT('',(0.,0.,0.));
#474=CARTESIAN_POINT('',(7.5,10.,0.));
#475=CARTESIAN_POINT('',(7.5,13.,0.));
#476=CARTESIAN_POINT('',(52.5,10.,20.));
#477=CARTESIAN_POINT('',(52.5,10.,12.));
#478=CARTESIAN_POINT('',(52.5,15.5,12.));
#479=CARTESIAN_POINT('',(52.5,10.,20.));
#480=CARTESIAN_POINT('',(52.5,15.5,20.));
#481=CARTESIAN_POINT('',(52.5,10.,12.));
#482=CARTESIAN_POINT('',(52.5,10.,12.));
#483=CARTESIAN_POINT('',(52.5,7.,12.));
#484=CARTESIAN_POINT('',(52.5,10.,20.));
#485=CARTESIAN_POINT('',(7.5,10.,20.));
#486=CARTESIAN_POINT('',(7.5,10.,12.));
#487=CARTESIAN_POINT('',(7.5,15.5,12.));
#488=CARTESIAN_POINT('',(7.5,10.,20.));
#489=CARTESIAN_POINT('',(7.5,15.5,20.));
#490=CARTESIAN_POINT('',(7.5,10.,12.));
#491=CARTESIAN_POINT('',(7.5,10.,12.));
#492=CARTESIAN_POINT('',(7.5,7.,12.));
#493=CARTESIAN_POINT('',(7.5,10.,20.));
#494=CARTESIAN_POINT('',(60.,10.,0.));
#495=CARTESIAN_POINT('',(60.,20.,20.));
#496=CARTESIAN_POINT('',(60.,0.,20.));
#497=CARTESIAN_POINT('',(60.,0.,0.));
#498=CARTESIAN_POINT('',(30.,0.,0.));
#499=CARTESIAN_POINT('',(60.,0.,20.));
#500=CARTESIAN_POINT('',(0.,0.,20.));
#501=CARTESIAN_POINT('',(0.,0.,0.));
#502=CARTESIAN_POINT('',(0.,10.,0.));
#503=CARTESIAN_POINT('',(0.,0.,20.));
#504=CARTESIAN_POINT('',(30.,10.,20.));
#505=PLANE('',#346);
#506=PLANE('',#353);
#507=PLANE('',#355);
#508=PLANE('',#360);
#509=PLANE('',#366);
#510=PLANE('',#369);
#511=PLANE('',#370);
#512=PLANE('',#371);
#513=PLANE('',#372);
#514=CLOSED_SHELL('',(#330,#331,#332,#333,#334,#335,#336,#337,#338,#339,
#340,#341,#342,#343,#344,#345));
#515=MANIFOLD_SOLID_BREP('',#514);
#516=ADVANCED_BREP_SHAPE_REPRESENTATION('',(#515),#103);
ENDSEC;
END-ISO-10303-21;
