ISO-10303-21;
HEADER;
/* Generated by software containing ST-Developer
 * from STEP Tools, Inc. (www.steptools.com) 
 */

FILE_DESCRIPTION(
/* description */ (''),
/* implementation_level */ '2;1');

FILE_NAME(
/* name */ 'SwitchKlarus.step',
/* time_stamp */ '2024-08-19T08:37:12+02:00',
/* author */ (''),
/* organization */ (''),
/* preprocessor_version */ 'ST-DEVELOPER v20',
/* originating_system */ 'Autodesk Translation Framework v13.14.0.145',

/* authorisation */ '');

FILE_SCHEMA (('AUTOMOTIVE_DESIGN { 1 0 10303 214 3 1 1 }'));
ENDSEC;

DATA;
#10=MECHANICAL_DESIGN_GEOMETRIC_PRESENTATION_REPRESENTATION('',(#13),#158);
#11=SHAPE_REPRESENTATION_RELATIONSHIP('SRR','None',#164,#12);
#12=ADVANCED_BREP_SHAPE_REPRESENTATION('',(#14),#157);
#13=STYLED_ITEM('',(#173),#14);
#14=MANIFOLD_SOLID_BREP('Corps437',#90);
#15=FACE_BOUND('',#29,.T.);
#16=FACE_BOUND('',#33,.T.);
#17=FACE_BOUND('',#35,.T.);
#18=PLANE('',#95);
#19=PLANE('',#102);
#20=PLANE('',#103);
#21=FACE_OUTER_BOUND('',#27,.T.);
#22=FACE_OUTER_BOUND('',#28,.T.);
#23=FACE_OUTER_BOUND('',#30,.T.);
#24=FACE_OUTER_BOUND('',#31,.T.);
#25=FACE_OUTER_BOUND('',#32,.T.);
#26=FACE_OUTER_BOUND('',#34,.T.);
#27=EDGE_LOOP('',(#63,#64,#65,#66));
#28=EDGE_LOOP('',(#67));
#29=EDGE_LOOP('',(#68));
#30=EDGE_LOOP('',(#69,#70,#71,#72));
#31=EDGE_LOOP('',(#73,#74,#75,#76));
#32=EDGE_LOOP('',(#77));
#33=EDGE_LOOP('',(#78));
#34=EDGE_LOOP('',(#79));
#35=EDGE_LOOP('',(#80));
#36=LINE('',#138,#39);
#37=LINE('',#146,#40);
#38=LINE('',#151,#41);
#39=VECTOR('',#110,10.);
#40=VECTOR('',#121,5.5);
#41=VECTOR('',#126,11.);
#42=CIRCLE('',#93,10.);
#43=CIRCLE('',#94,10.);
#44=CIRCLE('',#96,5.26435);
#45=CIRCLE('',#98,5.26435);
#46=CIRCLE('',#100,10.942);
#47=CIRCLE('',#101,10.942);
#48=VERTEX_POINT('',#135);
#49=VERTEX_POINT('',#137);
#50=VERTEX_POINT('',#141);
#51=VERTEX_POINT('',#144);
#52=VERTEX_POINT('',#148);
#53=VERTEX_POINT('',#150);
#54=EDGE_CURVE('',#48,#48,#42,.T.);
#55=EDGE_CURVE('',#48,#49,#36,.T.);
#56=EDGE_CURVE('',#49,#49,#43,.T.);
#57=EDGE_CURVE('',#50,#50,#44,.F.);
#58=EDGE_CURVE('',#51,#51,#45,.T.);
#59=EDGE_CURVE('',#51,#50,#37,.T.);
#60=EDGE_CURVE('',#52,#52,#46,.T.);
#61=EDGE_CURVE('',#52,#53,#38,.T.);
#62=EDGE_CURVE('',#53,#53,#47,.F.);
#63=ORIENTED_EDGE('',*,*,#54,.F.);
#64=ORIENTED_EDGE('',*,*,#55,.T.);
#65=ORIENTED_EDGE('',*,*,#56,.F.);
#66=ORIENTED_EDGE('',*,*,#55,.F.);
#67=ORIENTED_EDGE('',*,*,#54,.T.);
#68=ORIENTED_EDGE('',*,*,#57,.T.);
#69=ORIENTED_EDGE('',*,*,#58,.F.);
#70=ORIENTED_EDGE('',*,*,#59,.T.);
#71=ORIENTED_EDGE('',*,*,#57,.F.);
#72=ORIENTED_EDGE('',*,*,#59,.F.);
#73=ORIENTED_EDGE('',*,*,#60,.F.);
#74=ORIENTED_EDGE('',*,*,#61,.T.);
#75=ORIENTED_EDGE('',*,*,#62,.F.);
#76=ORIENTED_EDGE('',*,*,#61,.F.);
#77=ORIENTED_EDGE('',*,*,#62,.T.);
#78=ORIENTED_EDGE('',*,*,#56,.T.);
#79=ORIENTED_EDGE('',*,*,#60,.T.);
#80=ORIENTED_EDGE('',*,*,#58,.T.);
#81=CYLINDRICAL_SURFACE('',#92,10.);
#82=CYLINDRICAL_SURFACE('',#97,5.26435);
#83=CYLINDRICAL_SURFACE('',#99,10.942);
#84=ADVANCED_FACE('',(#21),#81,.T.);
#85=ADVANCED_FACE('',(#22,#15),#18,.T.);
#86=ADVANCED_FACE('',(#23),#82,.F.);
#87=ADVANCED_FACE('',(#24),#83,.T.);
#88=ADVANCED_FACE('',(#25,#16),#19,.T.);
#89=ADVANCED_FACE('',(#26,#17),#20,.F.);
#90=CLOSED_SHELL('',(#84,#85,#86,#87,#88,#89));
#91=AXIS2_PLACEMENT_3D('',#133,#104,#105);
#92=AXIS2_PLACEMENT_3D('',#134,#106,#107);
#93=AXIS2_PLACEMENT_3D('',#136,#108,#109);
#94=AXIS2_PLACEMENT_3D('',#139,#111,#112);
#95=AXIS2_PLACEMENT_3D('',#140,#113,#114);
#96=AXIS2_PLACEMENT_3D('',#142,#115,#116);
#97=AXIS2_PLACEMENT_3D('',#143,#117,#118);
#98=AXIS2_PLACEMENT_3D('',#145,#119,#120);
#99=AXIS2_PLACEMENT_3D('',#147,#122,#123);
#100=AXIS2_PLACEMENT_3D('',#149,#124,#125);
#101=AXIS2_PLACEMENT_3D('',#152,#127,#128);
#102=AXIS2_PLACEMENT_3D('',#153,#129,#130);
#103=AXIS2_PLACEMENT_3D('',#154,#131,#132);
#104=DIRECTION('axis',(0.,0.,1.));
#105=DIRECTION('refdir',(1.,0.,0.));
#106=DIRECTION('center_axis',(0.,0.,1.));
#107=DIRECTION('ref_axis',(1.,0.,0.));
#108=DIRECTION('center_axis',(0.,0.,1.));
#109=DIRECTION('ref_axis',(1.,0.,0.));
#110=DIRECTION('',(0.,0.,-1.));
#111=DIRECTION('center_axis',(0.,0.,-1.));
#112=DIRECTION('ref_axis',(1.,0.,0.));
#113=DIRECTION('center_axis',(0.,0.,1.));
#114=DIRECTION('ref_axis',(1.,0.,0.));
#115=DIRECTION('center_axis',(0.,0.,1.));
#116=DIRECTION('ref_axis',(1.,0.,0.));
#117=DIRECTION('center_axis',(0.,0.,-1.));
#118=DIRECTION('ref_axis',(1.,0.,0.));
#119=DIRECTION('center_axis',(0.,0.,1.));
#120=DIRECTION('ref_axis',(1.,0.,0.));
#121=DIRECTION('',(0.,0.,1.));
#122=DIRECTION('center_axis',(0.,0.,-1.));
#123=DIRECTION('ref_axis',(1.,0.,0.));
#124=DIRECTION('center_axis',(0.,0.,-1.));
#125=DIRECTION('ref_axis',(1.,0.,0.));
#126=DIRECTION('',(0.,0.,1.));
#127=DIRECTION('center_axis',(0.,0.,-1.));
#128=DIRECTION('ref_axis',(1.,0.,0.));
#129=DIRECTION('center_axis',(0.,0.,1.));
#130=DIRECTION('ref_axis',(1.,0.,0.));
#131=DIRECTION('center_axis',(0.,0.,1.));
#132=DIRECTION('ref_axis',(1.,0.,0.));
#133=CARTESIAN_POINT('',(0.,0.,0.));
#134=CARTESIAN_POINT('Origin',(0.,0.,0.));
#135=CARTESIAN_POINT('',(-10.,-1.22464679914735E-15,5.));
#136=CARTESIAN_POINT('Origin',(0.,0.,5.));
#137=CARTESIAN_POINT('',(-10.,-1.22464679914735E-15,0.));
#138=CARTESIAN_POINT('',(-10.,-1.22464679914735E-15,0.));
#139=CARTESIAN_POINT('Origin',(0.,0.,0.));
#140=CARTESIAN_POINT('Origin',(0.,0.,5.));
#141=CARTESIAN_POINT('',(-5.26435,-6.44696937709137E-16,5.));
#142=CARTESIAN_POINT('Origin',(0.,0.,5.));
#143=CARTESIAN_POINT('Origin',(0.,0.,0.));
#144=CARTESIAN_POINT('',(-5.26435,-6.44696937709137E-16,-3.));
#145=CARTESIAN_POINT('Origin',(0.,0.,-3.));
#146=CARTESIAN_POINT('',(-5.26435,6.44696937709137E-16,0.));
#147=CARTESIAN_POINT('Origin',(0.,0.,0.));
#148=CARTESIAN_POINT('',(-10.942,1.34000852762703E-15,-3.));
#149=CARTESIAN_POINT('Origin',(0.,0.,-3.));
#150=CARTESIAN_POINT('',(-10.942,1.34000852762703E-15,0.));
#151=CARTESIAN_POINT('',(-10.942,1.34000852762703E-15,0.));
#152=CARTESIAN_POINT('Origin',(0.,0.,0.));
#153=CARTESIAN_POINT('Origin',(0.,0.,0.));
#154=CARTESIAN_POINT('Origin',(0.,0.,-3.));
#155=UNCERTAINTY_MEASURE_WITH_UNIT(LENGTH_MEASURE(0.01),#159,
'DISTANCE_ACCURACY_VALUE',
'Maximum model space distance between geometric entities at asserted c
onnectivities');
#156=UNCERTAINTY_MEASURE_WITH_UNIT(LENGTH_MEASURE(0.01),#159,
'DISTANCE_ACCURACY_VALUE',
'Maximum model space distance between geometric entities at asserted c
onnectivities');
#157=(
GEOMETRIC_REPRESENTATION_CONTEXT(3)
GLOBAL_UNCERTAINTY_ASSIGNED_CONTEXT((#155))
GLOBAL_UNIT_ASSIGNED_CONTEXT((#159,#160,#161))
REPRESENTATION_CONTEXT('','3D')
);
#158=(
GEOMETRIC_REPRESENTATION_CONTEXT(3)
GLOBAL_UNCERTAINTY_ASSIGNED_CONTEXT((#156))
GLOBAL_UNIT_ASSIGNED_CONTEXT((#159,#160,#161))
REPRESENTATION_CONTEXT('','3D')
);
#159=(
LENGTH_UNIT()
NAMED_UNIT(*)
SI_UNIT(.MILLI.,.METRE.)
);
#160=(
NAMED_UNIT(*)
PLANE_ANGLE_UNIT()
SI_UNIT($,.RADIAN.)
);
#161=(
NAMED_UNIT(*)
SI_UNIT($,.STERADIAN.)
SOLID_ANGLE_UNIT()
);
#162=SHAPE_DEFINITION_REPRESENTATION(#163,#164);
#163=PRODUCT_DEFINITION_SHAPE('',$,#166);
#164=SHAPE_REPRESENTATION('',(#91),#157);
#165=PRODUCT_DEFINITION_CONTEXT('part definition',#170,'design');
#166=PRODUCT_DEFINITION('Sans nom','Sans nom v88',#167,#165);
#167=PRODUCT_DEFINITION_FORMATION('',$,#172);
#168=PRODUCT_RELATED_PRODUCT_CATEGORY('Sans nom v88','Sans nom v88',(#172));
#169=APPLICATION_PROTOCOL_DEFINITION('international standard',
'automotive_design',2009,#170);
#170=APPLICATION_CONTEXT(
'Core Data for Automotive Mechanical Design Process');
#171=PRODUCT_CONTEXT('part definition',#170,'mechanical');
#172=PRODUCT('Sans nom','Sans nom v88',$,(#171));
#173=PRESENTATION_STYLE_ASSIGNMENT((#188));
#174=PRESENTATION_STYLE_ASSIGNMENT((#189));
#175=PRESENTATION_STYLE_ASSIGNMENT((#190));
#176=PRESENTATION_STYLE_ASSIGNMENT((#191));
#177=PRESENTATION_STYLE_ASSIGNMENT((#192));
#178=PRESENTATION_STYLE_ASSIGNMENT((#193));
#179=PRESENTATION_STYLE_ASSIGNMENT((#194));
#180=PRESENTATION_STYLE_ASSIGNMENT((#195));
#181=PRESENTATION_STYLE_ASSIGNMENT((#196));
#182=PRESENTATION_STYLE_ASSIGNMENT((#197));
#183=PRESENTATION_STYLE_ASSIGNMENT((#198));
#184=PRESENTATION_STYLE_ASSIGNMENT((#199));
#185=PRESENTATION_STYLE_ASSIGNMENT((#200));
#186=PRESENTATION_STYLE_ASSIGNMENT((#201));
#187=PRESENTATION_STYLE_ASSIGNMENT((#202));
#188=SURFACE_STYLE_USAGE(.BOTH.,#203);
#189=SURFACE_STYLE_USAGE(.BOTH.,#204);
#190=SURFACE_STYLE_USAGE(.BOTH.,#205);
#191=SURFACE_STYLE_USAGE(.BOTH.,#206);
#192=SURFACE_STYLE_USAGE(.BOTH.,#207);
#193=SURFACE_STYLE_USAGE(.BOTH.,#208);
#194=SURFACE_STYLE_USAGE(.BOTH.,#209);
#195=SURFACE_STYLE_USAGE(.BOTH.,#210);
#196=SURFACE_STYLE_USAGE(.BOTH.,#211);
#197=SURFACE_STYLE_USAGE(.BOTH.,#212);
#198=SURFACE_STYLE_USAGE(.BOTH.,#213);
#199=SURFACE_STYLE_USAGE(.BOTH.,#214);
#200=SURFACE_STYLE_USAGE(.BOTH.,#215);
#201=SURFACE_STYLE_USAGE(.BOTH.,#216);
#202=SURFACE_STYLE_USAGE(.BOTH.,#217);
#203=SURFACE_SIDE_STYLE('',(#218));
#204=SURFACE_SIDE_STYLE('',(#219));
#205=SURFACE_SIDE_STYLE('',(#220));
#206=SURFACE_SIDE_STYLE('',(#221));
#207=SURFACE_SIDE_STYLE('',(#222));
#208=SURFACE_SIDE_STYLE('',(#223));
#209=SURFACE_SIDE_STYLE('',(#224));
#210=SURFACE_SIDE_STYLE('',(#225));
#211=SURFACE_SIDE_STYLE('',(#226));
#212=SURFACE_SIDE_STYLE('',(#227));
#213=SURFACE_SIDE_STYLE('',(#228));
#214=SURFACE_SIDE_STYLE('',(#229));
#215=SURFACE_SIDE_STYLE('',(#230));
#216=SURFACE_SIDE_STYLE('',(#231));
#217=SURFACE_SIDE_STYLE('',(#232));
#218=SURFACE_STYLE_FILL_AREA(#233);
#219=SURFACE_STYLE_FILL_AREA(#234);
#220=SURFACE_STYLE_FILL_AREA(#235);
#221=SURFACE_STYLE_FILL_AREA(#236);
#222=SURFACE_STYLE_FILL_AREA(#237);
#223=SURFACE_STYLE_FILL_AREA(#238);
#224=SURFACE_STYLE_FILL_AREA(#239);
#225=SURFACE_STYLE_FILL_AREA(#240);
#226=SURFACE_STYLE_FILL_AREA(#241);
#227=SURFACE_STYLE_FILL_AREA(#242);
#228=SURFACE_STYLE_FILL_AREA(#243);
#229=SURFACE_STYLE_FILL_AREA(#244);
#230=SURFACE_STYLE_FILL_AREA(#245);
#231=SURFACE_STYLE_FILL_AREA(#246);
#232=SURFACE_STYLE_FILL_AREA(#247);
#233=FILL_AREA_STYLE('Acier - Satin\X\E9',(#248));
#234=FILL_AREA_STYLE(
'PEKK - Poly\X\E9therc\X\E9tonec\X\E9tone renforc\X\E9 avec des fibres
 de carbone - HT-23 (avec imprimante 3D EOS P 810)',(#249));
#235=FILL_AREA_STYLE('Poudrage - Rugueux (noir)',(#250));
#236=FILL_AREA_STYLE('Peinture - M\X\E9tallis\X\E9e (gris fonc\X\E9)',(#251));
#237=FILL_AREA_STYLE('Poudrage - Rugueux (blanc)',(#252));
#238=FILL_AREA_STYLE('Poudrage - Rugueux (vert)',(#253));
#239=FILL_AREA_STYLE('Peinture - M\X\E9tallis\X\E9e (argent)',(#254));
#240=FILL_AREA_STYLE('Acier inoxydable - Poli',(#255));
#241=FILL_AREA_STYLE('Peinture - Brillant \X\E9maill\X\E9 (bleu)',(#256));
#242=FILL_AREA_STYLE('Fibre de carbone - Tress\X\E9e',(#257));
#243=FILL_AREA_STYLE('Caoutchouc - Souple',(#258));
#244=FILL_AREA_STYLE('Cuivre - Brut',(#259));
#245=FILL_AREA_STYLE('Poudrage - Rugueux (gris)',(#260));
#246=FILL_AREA_STYLE('Peinture - Paillettes m\X\E9talliques (argent)',(#261));
#247=FILL_AREA_STYLE('FR4',(#262));
#248=FILL_AREA_STYLE_COLOUR('Acier - Satin\X\E9',#263);
#249=FILL_AREA_STYLE_COLOUR(
'PEKK - Poly\X\E9therc\X\E9tonec\X\E9tone renforc\X\E9 avec des fibres
 de carbone - HT-23 (avec imprimante 3D EOS P 810)',#264);
#250=FILL_AREA_STYLE_COLOUR('Poudrage - Rugueux (noir)',#265);
#251=FILL_AREA_STYLE_COLOUR('Peinture - M\X\E9tallis\X\E9e (gris fonc\X\E9
)',#266);
#252=FILL_AREA_STYLE_COLOUR('Poudrage - Rugueux (blanc)',#267);
#253=FILL_AREA_STYLE_COLOUR('Poudrage - Rugueux (vert)',#268);
#254=FILL_AREA_STYLE_COLOUR('Peinture - M\X\E9tallis\X\E9e (argent)',#269);
#255=FILL_AREA_STYLE_COLOUR('Acier inoxydable - Poli',#270);
#256=FILL_AREA_STYLE_COLOUR('Peinture - Brillant \X\E9maill\X\E9 (bleu
)',#271);
#257=FILL_AREA_STYLE_COLOUR('Fibre de carbone - Tress\X\E9e',#272);
#258=FILL_AREA_STYLE_COLOUR('Caoutchouc - Souple',#273);
#259=FILL_AREA_STYLE_COLOUR('Cuivre - Brut',#274);
#260=FILL_AREA_STYLE_COLOUR('Poudrage - Rugueux (gris)',#275);
#261=FILL_AREA_STYLE_COLOUR(
'Peinture - Paillettes m\X\E9talliques (argent)',#276);
#262=FILL_AREA_STYLE_COLOUR('FR4',#277);
#263=COLOUR_RGB('Acier - Satin\X\E9',0.627450980392157,0.627450980392157,
0.627450980392157);
#264=COLOUR_RGB(
'PEKK - Poly\X\E9therc\X\E9tonec\X\E9tone renforc\X\E9 avec des fibres
 de carbone - HT-23 (avec imprimante 3D EOS P 810)',0.352941176470588,0.352941176470588,
0.352941176470588);
#265=COLOUR_RGB('Poudrage - Rugueux (noir)',0.0980392156862745,0.0980392156862745,
0.0980392156862745);
#266=COLOUR_RGB('Peinture - M\X\E9tallis\X\E9e (gris fonc\X\E9)',0.349019607843137,
0.349019607843137,0.349019607843137);
#267=COLOUR_RGB('Poudrage - Rugueux (blanc)',0.964705882352941,0.964705882352941,
0.952941176470588);
#268=COLOUR_RGB('Poudrage - Rugueux (vert)',0.266666666666667,0.588235294117647,
0.282352941176471);
#269=COLOUR_RGB('Peinture - M\X\E9tallis\X\E9e (argent)',0.984313725490196,
0.980392156862745,0.96078431372549);
#270=COLOUR_RGB('Acier inoxydable - Poli',0.796078431372549,0.796078431372549,
0.796078431372549);
#271=COLOUR_RGB('Peinture - Brillant \X\E9maill\X\E9 (bleu)',0.188235294117647,
0.231372549019608,0.588235294117647);
#272=COLOUR_RGB('Fibre de carbone - Tress\X\E9e',0.0980392156862745,0.0980392156862745,
0.0980392156862745);
#273=COLOUR_RGB('Caoutchouc - Souple',0.152941176470588,0.152941176470588,
0.152941176470588);
#274=COLOUR_RGB('Cuivre - Brut',0.,0.,0.);
#275=COLOUR_RGB('Poudrage - Rugueux (gris)',0.701960784313725,0.701960784313725,
0.701960784313725);
#276=COLOUR_RGB('Peinture - Paillettes m\X\E9talliques (argent)',0.984313725490196,
0.980392156862745,0.96078431372549);
#277=COLOUR_RGB('FR4',0.266666666666667,0.466666666666667,0.4);
ENDSEC;
END-ISO-10303-21;
