ISO-10303-21;
HEADER;
/* Generated by software containing ST-Developer
 * from STEP Tools, Inc. (www.steptools.com) 
 */

FILE_DESCRIPTION(
/* description */ (''),
/* implementation_level */ '2;1');

FILE_NAME(
/* name */ 
'F:\\INVENTOR\\COMMANDES\\Commande 2024\\HOME CLOTURES\\C2408764 - Mat
rice de fendage 4 pi\X\E8ces\\F8033ML.stp',
/* time_stamp */ '2024-08-29T15:32:04+02:00',
/* author */ ('Maxime L'),
/* organization */ (''),
/* preprocessor_version */ 'ST-DEVELOPER v18.1',
/* originating_system */ 'Autodesk Inventor 2022',
/* authorisation */ '');

FILE_SCHEMA (('AUTOMOTIVE_DESIGN { 1 0 10303 214 3 1 1 }'));
ENDSEC;

DATA;
#10=MECHANICAL_DESIGN_GEOMETRIC_PRESENTATION_REPRESENTATION('',(#13),#395);
#11=SHAPE_REPRESENTATION_RELATIONSHIP('SRR','None',#402,#12);
#12=ADVANCED_BREP_SHAPE_REPRESENTATION('',(#14),#394);
#13=STYLED_ITEM('',(#411),#14);
#14=MANIFOLD_SOLID_BREP('Solide1',#208);
#15=TOROIDAL_SURFACE('',#260,45.5,32.5);
#16=CYLINDRICAL_SURFACE('',#236,12.);
#17=CYLINDRICAL_SURFACE('',#243,12.);
#18=CYLINDRICAL_SURFACE('',#247,21.);
#19=CYLINDRICAL_SURFACE('',#252,21.);
#20=CYLINDRICAL_SURFACE('',#259,9.25);
#21=FACE_BOUND('',#45,.T.);
#22=FACE_BOUND('',#49,.T.);
#23=FACE_BOUND('',#56,.T.);
#24=FACE_BOUND('',#58,.T.);
#25=PLANE('',#234);
#26=PLANE('',#241);
#27=PLANE('',#255);
#28=PLANE('',#257);
#29=FACE_OUTER_BOUND('',#43,.T.);
#30=FACE_OUTER_BOUND('',#44,.T.);
#31=FACE_OUTER_BOUND('',#46,.T.);
#32=FACE_OUTER_BOUND('',#47,.T.);
#33=FACE_OUTER_BOUND('',#48,.T.);
#34=FACE_OUTER_BOUND('',#50,.T.);
#35=FACE_OUTER_BOUND('',#51,.T.);
#36=FACE_OUTER_BOUND('',#52,.T.);
#37=FACE_OUTER_BOUND('',#53,.T.);
#38=FACE_OUTER_BOUND('',#54,.T.);
#39=FACE_OUTER_BOUND('',#55,.T.);
#40=FACE_OUTER_BOUND('',#57,.T.);
#41=FACE_OUTER_BOUND('',#59,.T.);
#42=FACE_OUTER_BOUND('',#60,.T.);
#43=EDGE_LOOP('',(#138,#139,#140,#141));
#44=EDGE_LOOP('',(#142));
#45=EDGE_LOOP('',(#143));
#46=EDGE_LOOP('',(#144,#145,#146,#147));
#47=EDGE_LOOP('',(#148,#149,#150,#151));
#48=EDGE_LOOP('',(#152));
#49=EDGE_LOOP('',(#153));
#50=EDGE_LOOP('',(#154,#155,#156,#157));
#51=EDGE_LOOP('',(#158,#159,#160,#161));
#52=EDGE_LOOP('',(#162,#163,#164,#165,#166));
#53=EDGE_LOOP('',(#167,#168,#169,#170));
#54=EDGE_LOOP('',(#171,#172,#173,#174,#175));
#55=EDGE_LOOP('',(#176));
#56=EDGE_LOOP('',(#177));
#57=EDGE_LOOP('',(#178));
#58=EDGE_LOOP('',(#179));
#59=EDGE_LOOP('',(#180,#181,#182,#183));
#60=EDGE_LOOP('',(#184,#185,#186,#187,#188,#189));
#61=LINE('',#340,#70);
#62=LINE('',#347,#71);
#63=LINE('',#353,#72);
#64=LINE('',#360,#73);
#65=LINE('',#365,#74);
#66=LINE('',#370,#75);
#67=LINE('',#375,#76);
#68=LINE('',#378,#77);
#69=LINE('',#389,#78);
#70=VECTOR('',#268,12.25);
#71=VECTOR('',#277,12.);
#72=VECTOR('',#284,12.25);
#73=VECTOR('',#293,12.);
#74=VECTOR('',#300,19.5);
#75=VECTOR('',#305,21.);
#76=VECTOR('',#312,19.5);
#77=VECTOR('',#315,21.);
#78=VECTOR('',#330,9.25);
#79=CIRCLE('',#232,12.5);
#80=CIRCLE('',#233,12.);
#81=CIRCLE('',#235,18.);
#82=CIRCLE('',#237,12.);
#83=CIRCLE('',#239,12.5);
#84=CIRCLE('',#240,12.);
#85=CIRCLE('',#242,18.);
#86=CIRCLE('',#244,12.);
#87=CIRCLE('',#246,21.);
#88=CIRCLE('',#248,21.);
#89=CIRCLE('',#249,21.);
#90=CIRCLE('',#251,21.);
#91=CIRCLE('',#253,21.);
#92=CIRCLE('',#254,21.);
#93=CIRCLE('',#256,9.25);
#94=CIRCLE('',#258,9.25);
#95=CIRCLE('',#261,32.5);
#96=VERTEX_POINT('',#337);
#97=VERTEX_POINT('',#339);
#98=VERTEX_POINT('',#343);
#99=VERTEX_POINT('',#346);
#100=VERTEX_POINT('',#350);
#101=VERTEX_POINT('',#352);
#102=VERTEX_POINT('',#356);
#103=VERTEX_POINT('',#359);
#104=VERTEX_POINT('',#363);
#105=VERTEX_POINT('',#367);
#106=VERTEX_POINT('',#368);
#107=VERTEX_POINT('',#373);
#108=VERTEX_POINT('',#377);
#109=VERTEX_POINT('',#379);
#110=VERTEX_POINT('',#383);
#111=VERTEX_POINT('',#386);
#112=EDGE_CURVE('',#96,#96,#79,.T.);
#113=EDGE_CURVE('',#96,#97,#61,.T.);
#114=EDGE_CURVE('',#97,#97,#80,.T.);
#115=EDGE_CURVE('',#98,#98,#81,.T.);
#116=EDGE_CURVE('',#97,#99,#62,.T.);
#117=EDGE_CURVE('',#99,#99,#82,.T.);
#118=EDGE_CURVE('',#100,#100,#83,.T.);
#119=EDGE_CURVE('',#100,#101,#63,.T.);
#120=EDGE_CURVE('',#101,#101,#84,.T.);
#121=EDGE_CURVE('',#102,#102,#85,.T.);
#122=EDGE_CURVE('',#101,#103,#64,.T.);
#123=EDGE_CURVE('',#103,#103,#86,.T.);
#124=EDGE_CURVE('',#104,#104,#87,.T.);
#125=EDGE_CURVE('',#104,#98,#65,.T.);
#126=EDGE_CURVE('',#105,#106,#88,.T.);
#127=EDGE_CURVE('',#105,#104,#66,.T.);
#128=EDGE_CURVE('',#106,#105,#89,.T.);
#129=EDGE_CURVE('',#107,#107,#90,.T.);
#130=EDGE_CURVE('',#107,#102,#67,.T.);
#131=EDGE_CURVE('',#107,#108,#68,.T.);
#132=EDGE_CURVE('',#109,#108,#91,.T.);
#133=EDGE_CURVE('',#108,#109,#92,.T.);
#134=EDGE_CURVE('',#110,#110,#93,.T.);
#135=EDGE_CURVE('',#111,#111,#94,.T.);
#136=EDGE_CURVE('',#111,#110,#69,.T.);
#137=EDGE_CURVE('',#106,#109,#95,.T.);
#138=ORIENTED_EDGE('',*,*,#112,.T.);
#139=ORIENTED_EDGE('',*,*,#113,.T.);
#140=ORIENTED_EDGE('',*,*,#114,.T.);
#141=ORIENTED_EDGE('',*,*,#113,.F.);
#142=ORIENTED_EDGE('',*,*,#115,.F.);
#143=ORIENTED_EDGE('',*,*,#112,.F.);
#144=ORIENTED_EDGE('',*,*,#114,.F.);
#145=ORIENTED_EDGE('',*,*,#116,.T.);
#146=ORIENTED_EDGE('',*,*,#117,.T.);
#147=ORIENTED_EDGE('',*,*,#116,.F.);
#148=ORIENTED_EDGE('',*,*,#118,.T.);
#149=ORIENTED_EDGE('',*,*,#119,.T.);
#150=ORIENTED_EDGE('',*,*,#120,.T.);
#151=ORIENTED_EDGE('',*,*,#119,.F.);
#152=ORIENTED_EDGE('',*,*,#121,.F.);
#153=ORIENTED_EDGE('',*,*,#118,.F.);
#154=ORIENTED_EDGE('',*,*,#120,.F.);
#155=ORIENTED_EDGE('',*,*,#122,.T.);
#156=ORIENTED_EDGE('',*,*,#123,.F.);
#157=ORIENTED_EDGE('',*,*,#122,.F.);
#158=ORIENTED_EDGE('',*,*,#124,.T.);
#159=ORIENTED_EDGE('',*,*,#125,.T.);
#160=ORIENTED_EDGE('',*,*,#115,.T.);
#161=ORIENTED_EDGE('',*,*,#125,.F.);
#162=ORIENTED_EDGE('',*,*,#126,.F.);
#163=ORIENTED_EDGE('',*,*,#127,.T.);
#164=ORIENTED_EDGE('',*,*,#124,.F.);
#165=ORIENTED_EDGE('',*,*,#127,.F.);
#166=ORIENTED_EDGE('',*,*,#128,.F.);
#167=ORIENTED_EDGE('',*,*,#129,.T.);
#168=ORIENTED_EDGE('',*,*,#130,.T.);
#169=ORIENTED_EDGE('',*,*,#121,.T.);
#170=ORIENTED_EDGE('',*,*,#130,.F.);
#171=ORIENTED_EDGE('',*,*,#129,.F.);
#172=ORIENTED_EDGE('',*,*,#131,.T.);
#173=ORIENTED_EDGE('',*,*,#132,.F.);
#174=ORIENTED_EDGE('',*,*,#133,.F.);
#175=ORIENTED_EDGE('',*,*,#131,.F.);
#176=ORIENTED_EDGE('',*,*,#123,.T.);
#177=ORIENTED_EDGE('',*,*,#134,.F.);
#178=ORIENTED_EDGE('',*,*,#117,.F.);
#179=ORIENTED_EDGE('',*,*,#135,.T.);
#180=ORIENTED_EDGE('',*,*,#135,.F.);
#181=ORIENTED_EDGE('',*,*,#136,.T.);
#182=ORIENTED_EDGE('',*,*,#134,.T.);
#183=ORIENTED_EDGE('',*,*,#136,.F.);
#184=ORIENTED_EDGE('',*,*,#126,.T.);
#185=ORIENTED_EDGE('',*,*,#137,.T.);
#186=ORIENTED_EDGE('',*,*,#132,.T.);
#187=ORIENTED_EDGE('',*,*,#133,.T.);
#188=ORIENTED_EDGE('',*,*,#137,.F.);
#189=ORIENTED_EDGE('',*,*,#128,.T.);
#190=CONICAL_SURFACE('',#231,12.25,0.785398163397451);
#191=CONICAL_SURFACE('',#238,12.25,0.785398163397448);
#192=CONICAL_SURFACE('',#245,19.5,0.785398163397449);
#193=CONICAL_SURFACE('',#250,19.5,0.785398163397449);
#194=ADVANCED_FACE('',(#29),#190,.F.);
#195=ADVANCED_FACE('',(#30,#21),#25,.T.);
#196=ADVANCED_FACE('',(#31),#16,.F.);
#197=ADVANCED_FACE('',(#32),#191,.F.);
#198=ADVANCED_FACE('',(#33,#22),#26,.T.);
#199=ADVANCED_FACE('',(#34),#17,.F.);
#200=ADVANCED_FACE('',(#35),#192,.T.);
#201=ADVANCED_FACE('',(#36),#18,.T.);
#202=ADVANCED_FACE('',(#37),#193,.T.);
#203=ADVANCED_FACE('',(#38),#19,.T.);
#204=ADVANCED_FACE('',(#39,#23),#27,.F.);
#205=ADVANCED_FACE('',(#40,#24),#28,.T.);
#206=ADVANCED_FACE('',(#41),#20,.F.);
#207=ADVANCED_FACE('',(#42),#15,.F.);
#208=CLOSED_SHELL('',(#194,#195,#196,#197,#198,#199,#200,#201,#202,#203,
#204,#205,#206,#207));
#209=DERIVED_UNIT_ELEMENT(#212,1.);
#210=DERIVED_UNIT_ELEMENT(#397,-3.);
#211=DIMENSIONAL_EXPONENTS(1.,0.,0.,0.,0.,0.,0.);
#212=(
CONVERSION_BASED_UNIT('gram',#214)
MASS_UNIT()
NAMED_UNIT(#211)
);
#213=(
MASS_UNIT()
NAMED_UNIT(*)
SI_UNIT(.KILO.,.GRAM.)
);
#214=MASS_MEASURE_WITH_UNIT(MASS_MEASURE(0.001),#213);
#215=DERIVED_UNIT((#209,#210));
#216=MEASURE_REPRESENTATION_ITEM('density measure',
POSITIVE_RATIO_MEASURE(7.85),#215);
#217=PROPERTY_DEFINITION_REPRESENTATION(#222,#219);
#218=PROPERTY_DEFINITION_REPRESENTATION(#223,#220);
#219=REPRESENTATION('material name',(#221),#394);
#220=REPRESENTATION('density',(#216),#394);
#221=DESCRIPTIVE_REPRESENTATION_ITEM('42CD4 (42CrMo4)',
'42CD4 (42CrMo4)');
#222=PROPERTY_DEFINITION('material property','material name',#404);
#223=PROPERTY_DEFINITION('material property','density of part',#404);
#224=DATE_TIME_ROLE('creation_date');
#225=APPLIED_DATE_AND_TIME_ASSIGNMENT(#226,#224,(#404));
#226=DATE_AND_TIME(#227,#228);
#227=CALENDAR_DATE(2021,3,12);
#228=LOCAL_TIME(0,0,0.,#229);
#229=COORDINATED_UNIVERSAL_TIME_OFFSET(0,0,.BEHIND.);
#230=AXIS2_PLACEMENT_3D('placement',#335,#262,#263);
#231=AXIS2_PLACEMENT_3D('',#336,#264,#265);
#232=AXIS2_PLACEMENT_3D('',#338,#266,#267);
#233=AXIS2_PLACEMENT_3D('',#341,#269,#270);
#234=AXIS2_PLACEMENT_3D('',#342,#271,#272);
#235=AXIS2_PLACEMENT_3D('',#344,#273,#274);
#236=AXIS2_PLACEMENT_3D('',#345,#275,#276);
#237=AXIS2_PLACEMENT_3D('',#348,#278,#279);
#238=AXIS2_PLACEMENT_3D('',#349,#280,#281);
#239=AXIS2_PLACEMENT_3D('',#351,#282,#283);
#240=AXIS2_PLACEMENT_3D('',#354,#285,#286);
#241=AXIS2_PLACEMENT_3D('',#355,#287,#288);
#242=AXIS2_PLACEMENT_3D('',#357,#289,#290);
#243=AXIS2_PLACEMENT_3D('',#358,#291,#292);
#244=AXIS2_PLACEMENT_3D('',#361,#294,#295);
#245=AXIS2_PLACEMENT_3D('',#362,#296,#297);
#246=AXIS2_PLACEMENT_3D('',#364,#298,#299);
#247=AXIS2_PLACEMENT_3D('',#366,#301,#302);
#248=AXIS2_PLACEMENT_3D('',#369,#303,#304);
#249=AXIS2_PLACEMENT_3D('',#371,#306,#307);
#250=AXIS2_PLACEMENT_3D('',#372,#308,#309);
#251=AXIS2_PLACEMENT_3D('',#374,#310,#311);
#252=AXIS2_PLACEMENT_3D('',#376,#313,#314);
#253=AXIS2_PLACEMENT_3D('',#380,#316,#317);
#254=AXIS2_PLACEMENT_3D('',#381,#318,#319);
#255=AXIS2_PLACEMENT_3D('',#382,#320,#321);
#256=AXIS2_PLACEMENT_3D('',#384,#322,#323);
#257=AXIS2_PLACEMENT_3D('',#385,#324,#325);
#258=AXIS2_PLACEMENT_3D('',#387,#326,#327);
#259=AXIS2_PLACEMENT_3D('',#388,#328,#329);
#260=AXIS2_PLACEMENT_3D('',#390,#331,#332);
#261=AXIS2_PLACEMENT_3D('',#391,#333,#334);
#262=DIRECTION('axis',(0.,0.,1.));
#263=DIRECTION('refdir',(1.,0.,0.));
#264=DIRECTION('center_axis',(0.,1.,0.));
#265=DIRECTION('ref_axis',(1.,0.,0.));
#266=DIRECTION('center_axis',(0.,1.,0.));
#267=DIRECTION('ref_axis',(1.,0.,0.));
#268=DIRECTION('',(0.707106781186549,-0.707106781186546,-8.65956056235495E-17));
#269=DIRECTION('center_axis',(0.,-1.,0.));
#270=DIRECTION('ref_axis',(1.,0.,0.));
#271=DIRECTION('center_axis',(0.,1.,0.));
#272=DIRECTION('ref_axis',(0.,0.,1.));
#273=DIRECTION('center_axis',(0.,-1.,0.));
#274=DIRECTION('ref_axis',(-1.,0.,0.));
#275=DIRECTION('center_axis',(0.,-1.,0.));
#276=DIRECTION('ref_axis',(1.,0.,0.));
#277=DIRECTION('',(0.,-1.,0.));
#278=DIRECTION('center_axis',(0.,-1.,0.));
#279=DIRECTION('ref_axis',(1.,0.,0.));
#280=DIRECTION('center_axis',(0.,-1.,0.));
#281=DIRECTION('ref_axis',(1.,0.,0.));
#282=DIRECTION('center_axis',(0.,-1.,0.));
#283=DIRECTION('ref_axis',(1.,0.,0.));
#284=DIRECTION('',(0.707106781186548,0.707106781186548,8.65956056235493E-17));
#285=DIRECTION('center_axis',(0.,1.,0.));
#286=DIRECTION('ref_axis',(1.,0.,0.));
#287=DIRECTION('center_axis',(0.,-1.,0.));
#288=DIRECTION('ref_axis',(0.,0.,-1.));
#289=DIRECTION('center_axis',(0.,1.,0.));
#290=DIRECTION('ref_axis',(-1.,0.,0.));
#291=DIRECTION('center_axis',(0.,-1.,0.));
#292=DIRECTION('ref_axis',(1.,0.,0.));
#293=DIRECTION('',(0.,1.,0.));
#294=DIRECTION('center_axis',(0.,-1.,0.));
#295=DIRECTION('ref_axis',(1.,0.,0.));
#296=DIRECTION('center_axis',(0.,-1.,0.));
#297=DIRECTION('ref_axis',(-1.,0.,0.));
#298=DIRECTION('center_axis',(0.,1.,0.));
#299=DIRECTION('ref_axis',(-1.,0.,0.));
#300=DIRECTION('',(-0.707106781186548,0.707106781186547,-8.65956056235494E-17));
#301=DIRECTION('center_axis',(0.,1.,0.));
#302=DIRECTION('ref_axis',(-1.,0.,0.));
#303=DIRECTION('center_axis',(0.,-1.,0.));
#304=DIRECTION('ref_axis',(-1.,0.,0.));
#305=DIRECTION('',(0.,1.,0.));
#306=DIRECTION('center_axis',(0.,-1.,0.));
#307=DIRECTION('ref_axis',(-1.,0.,0.));
#308=DIRECTION('center_axis',(0.,1.,0.));
#309=DIRECTION('ref_axis',(-1.,0.,0.));
#310=DIRECTION('center_axis',(0.,-1.,0.));
#311=DIRECTION('ref_axis',(-1.,0.,0.));
#312=DIRECTION('',(-0.707106781186548,-0.707106781186547,8.65956056235494E-17));
#313=DIRECTION('center_axis',(0.,1.,0.));
#314=DIRECTION('ref_axis',(-1.,0.,0.));
#315=DIRECTION('',(0.,1.,0.));
#316=DIRECTION('center_axis',(0.,1.,0.));
#317=DIRECTION('ref_axis',(-1.,0.,0.));
#318=DIRECTION('center_axis',(0.,1.,0.));
#319=DIRECTION('ref_axis',(-1.,0.,0.));
#320=DIRECTION('center_axis',(0.,1.,0.));
#321=DIRECTION('ref_axis',(0.,0.,1.));
#322=DIRECTION('center_axis',(0.,-1.,0.));
#323=DIRECTION('ref_axis',(1.,0.,0.));
#324=DIRECTION('center_axis',(0.,1.,0.));
#325=DIRECTION('ref_axis',(0.,0.,1.));
#326=DIRECTION('center_axis',(0.,-1.,0.));
#327=DIRECTION('ref_axis',(1.,0.,0.));
#328=DIRECTION('center_axis',(0.,-1.,0.));
#329=DIRECTION('ref_axis',(1.,0.,0.));
#330=DIRECTION('',(0.,-1.,0.));
#331=DIRECTION('center_axis',(0.,-1.,0.));
#332=DIRECTION('ref_axis',(0.,0.,-1.));
#333=DIRECTION('center_axis',(-1.,0.,-1.22464679914735E-16));
#334=DIRECTION('ref_axis',(-1.22464679914735E-16,0.,1.));
#335=CARTESIAN_POINT('',(0.,0.,0.));
#336=CARTESIAN_POINT('Origin',(5.42101086242752E-19,64.75,-2.16840434497101E-18));
#337=CARTESIAN_POINT('',(-12.5,65.,1.52864009458922E-15));
#338=CARTESIAN_POINT('Origin',(5.42101086242752E-19,65.,-2.16840434497101E-18));
#339=CARTESIAN_POINT('',(-12.,64.5,-1.47174456332179E-15));
#340=CARTESIAN_POINT('',(-12.25,64.75,1.49802392461054E-15));
#341=CARTESIAN_POINT('Origin',(5.42101086242752E-19,64.5,-2.16840434497101E-18));
#342=CARTESIAN_POINT('Origin',(22.,65.,0.));
#343=CARTESIAN_POINT('',(18.,65.,2.20436423846524E-15));
#344=CARTESIAN_POINT('Origin',(0.,65.,0.));
#345=CARTESIAN_POINT('Origin',(5.42101086242752E-19,55.,-2.16840434497101E-18));
#346=CARTESIAN_POINT('',(-12.,50.5,-1.47174456332179E-15));
#347=CARTESIAN_POINT('',(-12.,55.,-1.47174456332179E-15));
#348=CARTESIAN_POINT('Origin',(5.42101086242752E-19,50.5,-2.16840434497101E-18));
#349=CARTESIAN_POINT('Origin',(5.42101086242752E-19,0.25,-2.16840434497101E-18));
#350=CARTESIAN_POINT('',(-12.5,0.,-1.53297690327916E-15));
#351=CARTESIAN_POINT('Origin',(5.42101086242752E-19,0.,-2.16840434497101E-18));
#352=CARTESIAN_POINT('',(-12.,0.5,1.46740775463185E-15));
#353=CARTESIAN_POINT('',(-12.25,0.25,-1.50236073330048E-15));
#354=CARTESIAN_POINT('Origin',(5.42101086242752E-19,0.5,-2.16840434497101E-18));
#355=CARTESIAN_POINT('Origin',(0.,0.,0.));
#356=CARTESIAN_POINT('',(18.,0.,-2.20436423846524E-15));
#357=CARTESIAN_POINT('Origin',(0.,0.,0.));
#358=CARTESIAN_POINT('Origin',(5.42101086242752E-19,10.,-2.16840434497101E-18));
#359=CARTESIAN_POINT('',(-12.,14.5,-1.47174456332179E-15));
#360=CARTESIAN_POINT('',(-12.,10.,-1.47174456332179E-15));
#361=CARTESIAN_POINT('Origin',(5.42101086242752E-19,14.5,-2.16840434497101E-18));
#362=CARTESIAN_POINT('Origin',(0.,63.5,0.));
#363=CARTESIAN_POINT('',(21.,62.,-2.57175827820944E-15));
#364=CARTESIAN_POINT('Origin',(0.,62.,0.));
#365=CARTESIAN_POINT('',(19.5,63.5,2.38806125833734E-15));
#366=CARTESIAN_POINT('Origin',(0.,55.,0.));
#367=CARTESIAN_POINT('',(21.,53.8541565040626,2.57175827820944E-15));
#368=CARTESIAN_POINT('',(-2.57175827820944E-15,53.8541565040626,21.));
#369=CARTESIAN_POINT('Origin',(0.,53.8541565040626,0.));
#370=CARTESIAN_POINT('',(21.,55.,-2.57175827820944E-15));
#371=CARTESIAN_POINT('Origin',(0.,53.8541565040626,0.));
#372=CARTESIAN_POINT('Origin',(0.,1.5,0.));
#373=CARTESIAN_POINT('',(21.,3.,2.57175827820944E-15));
#374=CARTESIAN_POINT('Origin',(0.,3.,0.));
#375=CARTESIAN_POINT('',(19.5,1.5,-2.38806125833734E-15));
#376=CARTESIAN_POINT('Origin',(0.,55.,0.));
#377=CARTESIAN_POINT('',(21.,11.1458434959374,-2.57175827820944E-15));
#378=CARTESIAN_POINT('',(21.,55.,-2.57175827820944E-15));
#379=CARTESIAN_POINT('',(-2.57175827820944E-15,11.1458434959374,21.));
#380=CARTESIAN_POINT('Origin',(0.,11.1458434959374,0.));
#381=CARTESIAN_POINT('Origin',(0.,11.1458434959374,0.));
#382=CARTESIAN_POINT('Origin',(0.,14.5,0.));
#383=CARTESIAN_POINT('',(-9.25,14.5,-1.13496669355627E-15));
#384=CARTESIAN_POINT('Origin',(5.42101086242752E-19,14.5,-2.16840434497101E-18));
#385=CARTESIAN_POINT('Origin',(0.,50.5,0.));
#386=CARTESIAN_POINT('',(-9.25,50.5,-1.13496669355627E-15));
#387=CARTESIAN_POINT('Origin',(5.42101086242752E-19,50.5,-2.16840434497101E-18));
#388=CARTESIAN_POINT('Origin',(5.42101086242752E-19,55.,-2.16840434497101E-18));
#389=CARTESIAN_POINT('',(-9.25,55.,-1.13496669355627E-15));
#390=CARTESIAN_POINT('Origin',(0.,32.5,0.));
#391=CARTESIAN_POINT('Origin',(-5.57214293612046E-15,32.5,45.5));
#392=UNCERTAINTY_MEASURE_WITH_UNIT(LENGTH_MEASURE(0.01),#396,
'DISTANCE_ACCURACY_VALUE',
'Maximum model space distance between geometric entities at asserted c
onnectivities');
#393=UNCERTAINTY_MEASURE_WITH_UNIT(LENGTH_MEASURE(0.01),#396,
'DISTANCE_ACCURACY_VALUE',
'Maximum model space distance between geometric entities at asserted c
onnectivities');
#394=(
GEOMETRIC_REPRESENTATION_CONTEXT(3)
GLOBAL_UNCERTAINTY_ASSIGNED_CONTEXT((#392))
GLOBAL_UNIT_ASSIGNED_CONTEXT((#396,#398,#399))
REPRESENTATION_CONTEXT('','3D')
);
#395=(
GEOMETRIC_REPRESENTATION_CONTEXT(3)
GLOBAL_UNCERTAINTY_ASSIGNED_CONTEXT((#393))
GLOBAL_UNIT_ASSIGNED_CONTEXT((#396,#398,#399))
REPRESENTATION_CONTEXT('','3D')
);
#396=(
LENGTH_UNIT()
NAMED_UNIT(*)
SI_UNIT(.MILLI.,.METRE.)
);
#397=(
LENGTH_UNIT()
NAMED_UNIT(*)
SI_UNIT(.CENTI.,.METRE.)
);
#398=(
NAMED_UNIT(*)
PLANE_ANGLE_UNIT()
SI_UNIT($,.RADIAN.)
);
#399=(
NAMED_UNIT(*)
SI_UNIT($,.STERADIAN.)
SOLID_ANGLE_UNIT()
);
#400=SHAPE_DEFINITION_REPRESENTATION(#401,#402);
#401=PRODUCT_DEFINITION_SHAPE('',$,#404);
#402=SHAPE_REPRESENTATION('',(#230),#394);
#403=PRODUCT_DEFINITION_CONTEXT('part definition',#408,'design');
#404=PRODUCT_DEFINITION('F8033ML','F8033ML',#405,#403);
#405=PRODUCT_DEFINITION_FORMATION('',$,#410);
#406=PRODUCT_RELATED_PRODUCT_CATEGORY('F8033ML','F8033ML',(#410));
#407=APPLICATION_PROTOCOL_DEFINITION('international standard',
'automotive_design',2009,#408);
#408=APPLICATION_CONTEXT(
'Core Data for Automotive Mechanical Design Process');
#409=PRODUCT_CONTEXT('part definition',#408,'mechanical');
#410=PRODUCT('F8033ML','F8033ML',$,(#409));
#411=PRESENTATION_STYLE_ASSIGNMENT((#412));
#412=SURFACE_STYLE_USAGE(.BOTH.,#415);
#413=SURFACE_STYLE_RENDERING_WITH_PROPERTIES($,#419,(#414));
#414=SURFACE_STYLE_TRANSPARENT(0.);
#415=SURFACE_SIDE_STYLE('',(#416,#413));
#416=SURFACE_STYLE_FILL_AREA(#417);
#417=FILL_AREA_STYLE('',(#418));
#418=FILL_AREA_STYLE_COLOUR('',#419);
#419=COLOUR_RGB('',0.698039215686274,0.698039215686274,0.698039215686274);
ENDSEC;
END-ISO-10303-21;
