ISO-10303-21;
HEADER;
FILE_DESCRIPTION (( 'STEP AP203' ),
    '1' );
FILE_NAME ('guide verin Duteil.STEP',
    '2024-07-05T16:12:26',
    ( '' ),
    ( '' ),
    'SwSTEP 2.0',
    'SolidWorks 2020',
    '' );
FILE_SCHEMA (( 'CONFIG_CONTROL_DESIGN' ));
ENDSEC;

DATA;
#1 = PERSON_AND_ORGANIZATION_ROLE ( 'creator' ) ;
#2 = CARTESIAN_POINT ( 'NONE',  ( 0.000000000000000000, 0.000000000000000000, 3.316257256172377765 ) ) ;
#3 = ADVANCED_FACE ( 'NONE', ( #57, #181 ), #303, .T. ) ;
#4 = EDGE_LOOP ( 'NONE', ( #147, #214 ) ) ;
#5 = LINE ( 'NONE', #318, #244 ) ;
#6 = DIRECTION ( 'NONE',  ( -0.000000000000000000, -0.000000000000000000, -1.000000000000000000 ) ) ;
#7 = PRODUCT_DEFINITION ( 'UNKNOWN', '', #146, #60 ) ;
#8 = CARTESIAN_POINT ( 'NONE',  ( 0.000000000000000000, 0.000000000000000000, -89.20212765957447232 ) ) ;
#9 = VERTEX_POINT ( 'NONE', #149 ) ;
#10 = SHAPE_DEFINITION_REPRESENTATION ( #354, #273 ) ;
#11 = AXIS2_PLACEMENT_3D ( 'NONE', #76, #170, #368 ) ;
#12 = CARTESIAN_POINT ( 'NONE',  ( -55.74999999999998579, 0.000000000000000000, -13.58374274382762081 ) ) ;
#13 = EDGE_CURVE ( 'NONE', #256, #142, #103, .T. ) ;
#14 = CARTESIAN_POINT ( 'NONE',  ( 53.75000000000000000, 6.582476545417023680E-15, -10.28374274382760944 ) ) ;
#15 = ORIENTED_EDGE ( 'NONE', *, *, #169, .F. ) ;
#16 = DIRECTION ( 'NONE',  ( -0.000000000000000000, -0.000000000000000000, -1.000000000000000000 ) ) ;
#17 = EDGE_LOOP ( 'NONE', ( #361, #209, #258, #158 ) ) ;
#18 = CARTESIAN_POINT ( 'NONE',  ( 53.75000000000000000, 6.582476545417023680E-15, -89.20212765957447232 ) ) ;
#19 = AXIS2_PLACEMENT_3D ( 'NONE', #174, #141, #394 ) ;
#20 = ORIENTED_EDGE ( 'NONE', *, *, #33, .F. ) ;
#21 = AXIS2_PLACEMENT_3D ( 'NONE', #69, #191, #46 ) ;
#22 = DIRECTION ( 'NONE',  ( -0.000000000000000000, -0.000000000000000000, -1.000000000000000000 ) ) ;
#23 = EDGE_CURVE ( 'NONE', #86, #53, #70, .T. ) ;
#24 = ORIENTED_EDGE ( 'NONE', *, *, #117, .F. ) ;
#25 = PERSON ( 'UNSPECIFIED', 'UNSPECIFIED', 'UNSPECIFIED', ('UNSPECIFIED'), ('UNSPECIFIED'), ('UNSPECIFIED') ) ;
#26 = FACE_OUTER_BOUND ( 'NONE', #406, .T. ) ;
#27 = ORIENTED_EDGE ( 'NONE', *, *, #353, .F. ) ;
#28 = PERSON_AND_ORGANIZATION ( #25, #302 ) ;
#29 = ORIENTED_EDGE ( 'NONE', *, *, #299, .F. ) ;
#30 = EDGE_CURVE ( 'NONE', #142, #256, #403, .T. ) ;
#31 = DIRECTION ( 'NONE',  ( -1.000000000000000000, 0.000000000000000000, 0.000000000000000000 ) ) ;
#32 = PERSON_AND_ORGANIZATION ( #25, #302 ) ;
#33 = EDGE_CURVE ( 'NONE', #333, #369, #331, .T. ) ;
#34 = ORIENTED_EDGE ( 'NONE', *, *, #231, .F. ) ;
#35 = ORIENTED_EDGE ( 'NONE', *, *, #215, .T. ) ;
#36 = CARTESIAN_POINT ( 'NONE',  ( 0.000000000000000000, 0.000000000000000000, -13.58374274382762081 ) ) ;
#37 = AXIS2_PLACEMENT_3D ( 'NONE', #262, #201, #328 ) ;
#38 = LINE ( 'NONE', #255, #217 ) ;
#39 = COORDINATED_UNIVERSAL_TIME_OFFSET ( 1, 0, .AHEAD. ) ;
#40 = CARTESIAN_POINT ( 'NONE',  ( 0.000000000000000000, 0.000000000000000000, 0.7162572561723867803 ) ) ;
#41 = ORIENTED_EDGE ( 'NONE', *, *, #162, .F. ) ;
#42 = CARTESIAN_POINT ( 'NONE',  ( 0.000000000000000000, 0.000000000000000000, 3.316257256172377765 ) ) ;
#43 = ADVANCED_FACE ( 'NONE', ( #284 ), #283, .F. ) ;
#44 = MANIFOLD_SOLID_BREP ( 'Revolve1', #277 ) ;
#45 = AXIS2_PLACEMENT_3D ( 'NONE', #347, #6, #223 ) ;
#46 = DIRECTION ( 'NONE',  ( -1.000000000000000000, 0.000000000000000000, 0.000000000000000000 ) ) ;
#47 = ORIENTED_EDGE ( 'NONE', *, *, #379, .T. ) ;
#48 = DIRECTION ( 'NONE',  ( -1.000000000000000000, 0.000000000000000000, 0.000000000000000000 ) ) ;
#49 = FACE_OUTER_BOUND ( 'NONE', #392, .T. ) ;
#50 = CARTESIAN_POINT ( 'NONE',  ( -55.74999999999998579, 0.000000000000000000, 0.7162572561723867803 ) ) ;
#51 = APPROVAL ( #183, 'UNSPECIFIED' ) ;
#52 = CC_DESIGN_APPROVAL ( #51, ( #7 ) ) ;
#53 = VERTEX_POINT ( 'NONE', #12 ) ;
#54 = FACE_OUTER_BOUND ( 'NONE', #345, .T. ) ;
#55 = ORIENTED_EDGE ( 'NONE', *, *, #299, .T. ) ;
#56 = LINE ( 'NONE', #18, #189 ) ;
#57 = FACE_OUTER_BOUND ( 'NONE', #399, .T. ) ;
#58 = ADVANCED_FACE ( 'NONE', ( #390 ), #355, .F. ) ;
#59 =( NAMED_UNIT ( * ) PLANE_ANGLE_UNIT ( ) SI_UNIT ( $, .RADIAN. ) );
#60 = DESIGN_CONTEXT ( 'detailed design', #241, 'design' ) ;
#61 = ORIENTED_EDGE ( 'NONE', *, *, #395, .F. ) ;
#62 = LOCAL_TIME ( 18, 12, 26.00000000000000000, #88 ) ;
#63 = PERSON_AND_ORGANIZATION_ROLE ( 'creator' ) ;
#64 =( LENGTH_UNIT ( ) NAMED_UNIT ( * ) SI_UNIT ( .MILLI., .METRE. ) );
#65 = CARTESIAN_POINT ( 'NONE',  ( 0.000000000000000000, 0.000000000000000000, -13.58374274382762081 ) ) ;
#66 = EDGE_LOOP ( 'NONE', ( #186, #280 ) ) ;
#67 = DIRECTION ( 'NONE',  ( -0.000000000000000000, -0.000000000000000000, -1.000000000000000000 ) ) ;
#68 = DIRECTION ( 'NONE',  ( -1.000000000000000000, 0.000000000000000000, 0.000000000000000000 ) ) ;
#69 = CARTESIAN_POINT ( 'NONE',  ( 0.000000000000000000, 0.000000000000000000, 0.7162572561723867803 ) ) ;
#70 = CIRCLE ( 'NONE', #287, 55.74999999999998579 ) ;
#71 = DIRECTION ( 'NONE',  ( -0.000000000000000000, -0.000000000000000000, -1.000000000000000000 ) ) ;
#72 = CARTESIAN_POINT ( 'NONE',  ( 57.50000000000000000, 7.041719095097280485E-15, -89.20212765957447232 ) ) ;
#73 = EDGE_CURVE ( 'NONE', #337, #195, #253, .T. ) ;
#74 =( GEOMETRIC_REPRESENTATION_CONTEXT ( 3 ) GLOBAL_UNCERTAINTY_ASSIGNED_CONTEXT ( ( #260 ) ) GLOBAL_UNIT_ASSIGNED_CONTEXT ( ( #64, #59, #115 ) ) REPRESENTATION_CONTEXT ( 'NONE', 'WORKASPACE' ) );
#75 = DIRECTION ( 'NONE',  ( 1.000000000000000000, 0.000000000000000000, -0.000000000000000000 ) ) ;
#76 = CARTESIAN_POINT ( 'NONE',  ( 0.000000000000000000, 0.000000000000000000, 0.7162572561723867803 ) ) ;
#77 = ORIENTED_EDGE ( 'NONE', *, *, #379, .F. ) ;
#78 = CC_DESIGN_DATE_AND_TIME_ASSIGNMENT ( #218, #356, ( #382 ) ) ;
#79 = DIRECTION ( 'NONE',  ( 0.000000000000000000, 0.000000000000000000, 1.000000000000000000 ) ) ;
#80 = ORIENTED_EDGE ( 'NONE', *, *, #117, .T. ) ;
#81 = CARTESIAN_POINT ( 'NONE',  ( -55.74999999999998579, 0.000000000000000000, -89.20212765957447232 ) ) ;
#82 = CIRCLE ( 'NONE', #307, 57.50000000000000000 ) ;
#83 = ORIENTED_EDGE ( 'NONE', *, *, #127, .F. ) ;
#84 = CARTESIAN_POINT ( 'NONE',  ( 0.000000000000000000, 0.000000000000000000, -89.20212765957447232 ) ) ;
#85 = EDGE_LOOP ( 'NONE', ( #336, #192, #177, #323 ) ) ;
#86 = VERTEX_POINT ( 'NONE', #252 ) ;
#87 = VECTOR ( 'NONE', #155, 1000.000000000000000 ) ;
#88 = COORDINATED_UNIVERSAL_TIME_OFFSET ( 1, 0, .AHEAD. ) ;
#89 = EDGE_CURVE ( 'NONE', #296, #239, #391, .T. ) ;
#90 = COORDINATED_UNIVERSAL_TIME_OFFSET ( 1, 0, .AHEAD. ) ;
#91 = DIRECTION ( 'NONE',  ( -0.000000000000000000, -0.000000000000000000, -1.000000000000000000 ) ) ;
#92 = DIRECTION ( 'NONE',  ( -0.000000000000000000, -0.000000000000000000, -1.000000000000000000 ) ) ;
#93 = AXIS2_PLACEMENT_3D ( 'NONE', #396, #334, #358 ) ;
#94 = LOCAL_TIME ( 18, 12, 26.00000000000000000, #90 ) ;
#95 = DIRECTION ( 'NONE',  ( -1.000000000000000000, 0.000000000000000000, 0.000000000000000000 ) ) ;
#96 = EDGE_CURVE ( 'NONE', #9, #296, #288, .T. ) ;
#97 = CARTESIAN_POINT ( 'NONE',  ( 55.74999999999998579, 6.827405905246493187E-15, -10.28374274382760944 ) ) ;
#98 = DIRECTION ( 'NONE',  ( -0.000000000000000000, -0.000000000000000000, -1.000000000000000000 ) ) ;
#99 = AXIS2_PLACEMENT_3D ( 'NONE', #8, #102, #320 ) ;
#100 = APPROVAL_DATE_TIME ( #388, #306 ) ;
#101 = CC_DESIGN_SECURITY_CLASSIFICATION ( #382, ( #146 ) ) ;
#102 = DIRECTION ( 'NONE',  ( -0.000000000000000000, -0.000000000000000000, -1.000000000000000000 ) ) ;
#103 = CIRCLE ( 'NONE', #409, 55.74999999999998579 ) ;
#104 = VERTEX_POINT ( 'NONE', #122 ) ;
#105 = CARTESIAN_POINT ( 'NONE',  ( -53.75000000000000000, 0.000000000000000000, -89.20212765957447232 ) ) ;
#106 = CARTESIAN_POINT ( 'NONE',  ( -57.50000000000000000, 0.000000000000000000, -13.58374274382762081 ) ) ;
#107 = AXIS2_PLACEMENT_3D ( 'NONE', #407, #91, #240 ) ;
#108 = PLANE ( 'NONE',  #268 ) ;
#109 = CARTESIAN_POINT ( 'NONE',  ( -53.75000000000000000, 0.000000000000000000, -10.28374274382760944 ) ) ;
#110 = PLANE ( 'NONE',  #270 ) ;
#111 = ORIENTED_EDGE ( 'NONE', *, *, #162, .T. ) ;
#112 = DIRECTION ( 'NONE',  ( -0.000000000000000000, -0.000000000000000000, -1.000000000000000000 ) ) ;
#113 = ORIENTED_EDGE ( 'NONE', *, *, #215, .F. ) ;
#114 = ORIENTED_EDGE ( 'NONE', *, *, #395, .T. ) ;
#115 =( NAMED_UNIT ( * ) SI_UNIT ( $, .STERADIAN. ) SOLID_ANGLE_UNIT ( ) );
#116 = APPROVAL_PERSON_ORGANIZATION ( #338, #51, #374 ) ;
#117 = EDGE_CURVE ( 'NONE', #135, #371, #235, .T. ) ;
#118 = AXIS2_PLACEMENT_3D ( 'NONE', #275, #16, #291 ) ;
#119 = DATE_TIME_ROLE ( 'creation_date' ) ;
#120 = PERSON_AND_ORGANIZATION ( #25, #302 ) ;
#121 = DIRECTION ( 'NONE',  ( -0.000000000000000000, -0.000000000000000000, -1.000000000000000000 ) ) ;
#122 = CARTESIAN_POINT ( 'NONE',  ( -55.74999999999998579, 0.000000000000000000, -10.28374274382760944 ) ) ;
#123 = DIRECTION ( 'NONE',  ( -0.000000000000000000, -0.000000000000000000, -1.000000000000000000 ) ) ;
#124 = DIRECTION ( 'NONE',  ( -0.000000000000000000, -0.000000000000000000, -1.000000000000000000 ) ) ;
#125 = CARTESIAN_POINT ( 'NONE',  ( -55.74999999999998579, 0.000000000000000000, 3.316257256172377765 ) ) ;
#126 = ORIENTED_EDGE ( 'NONE', *, *, #169, .T. ) ;
#127 = EDGE_CURVE ( 'NONE', #236, #9, #294, .T. ) ;
#128 = AXIS2_PLACEMENT_3D ( 'NONE', #348, #123, #384 ) ;
#129 = VECTOR ( 'NONE', #112, 1000.000000000000000 ) ;
#130 = DIRECTION ( 'NONE',  ( -0.000000000000000000, -0.000000000000000000, -1.000000000000000000 ) ) ;
#131 = VERTEX_POINT ( 'NONE', #97 ) ;
#132 = CYLINDRICAL_SURFACE ( 'NONE', #308, 53.75000000000000000 ) ;
#133 = ORIENTED_EDGE ( 'NONE', *, *, #96, .F. ) ;
#134 = CARTESIAN_POINT ( 'NONE',  ( -55.74999999999998579, 0.000000000000000000, 0.7162572561723867803 ) ) ;
#135 = VERTEX_POINT ( 'NONE', #188 ) ;
#136 = LOCAL_TIME ( 18, 12, 26.00000000000000000, #39 ) ;
#137 = CARTESIAN_POINT ( 'NONE',  ( 53.75000000000000000, 6.582476545417023680E-15, 0.7162572561723867803 ) ) ;
#138 = CIRCLE ( 'NONE', #11, 55.74999999999998579 ) ;
#139 = CYLINDRICAL_SURFACE ( 'NONE', #37, 55.74999999999998579 ) ;
#140 = EDGE_LOOP ( 'NONE', ( #364, #126, #298, #311 ) ) ;
#141 = DIRECTION ( 'NONE',  ( -0.000000000000000000, -0.000000000000000000, -1.000000000000000000 ) ) ;
#142 = VERTEX_POINT ( 'NONE', #125 ) ;
#143 = ADVANCED_FACE ( 'NONE', ( #314 ), #190, .T. ) ;
#144 = PERSON_AND_ORGANIZATION_ROLE ( 'classification_officer' ) ;
#145 = AXIS2_PLACEMENT_3D ( 'NONE', #349, #161, #193 ) ;
#146 = PRODUCT_DEFINITION_FORMATION_WITH_SPECIFIED_SOURCE ( 'ANY', '', #376, .NOT_KNOWN. ) ;
#147 = ORIENTED_EDGE ( 'NONE', *, *, #73, .T. ) ;
#148 = PERSON_AND_ORGANIZATION ( #25, #302 ) ;
#149 = CARTESIAN_POINT ( 'NONE',  ( -53.75000000000000000, 0.000000000000000000, 0.7162572561723867803 ) ) ;
#150 = DIRECTION ( 'NONE',  ( 1.000000000000000000, 0.000000000000000000, 0.000000000000000000 ) ) ;
#151 = CC_DESIGN_PERSON_AND_ORGANIZATION_ASSIGNMENT ( #120, #246, ( #146 ) ) ;
#152 = CALENDAR_DATE ( 2024, 5, 7 ) ;
#153 = VECTOR ( 'NONE', #219, 1000.000000000000000 ) ;
#154 = AXIS2_PLACEMENT_3D ( 'NONE', #313, #124, #68 ) ;
#155 = DIRECTION ( 'NONE',  ( -0.000000000000000000, -0.000000000000000000, -1.000000000000000000 ) ) ;
#156 = CALENDAR_DATE ( 2024, 5, 7 ) ;
#157 = ORIENTED_EDGE ( 'NONE', *, *, #335, .T. ) ;
#158 = ORIENTED_EDGE ( 'NONE', *, *, #89, .T. ) ;
#159 = DIRECTION ( 'NONE',  ( -0.000000000000000000, -0.000000000000000000, -1.000000000000000000 ) ) ;
#160 = FACE_OUTER_BOUND ( 'NONE', #329, .T. ) ;
#161 = DIRECTION ( 'NONE',  ( -0.000000000000000000, -0.000000000000000000, -1.000000000000000000 ) ) ;
#162 = EDGE_CURVE ( 'NONE', #131, #104, #167, .T. ) ;
#163 = DIRECTION ( 'NONE',  ( -0.000000000000000000, -0.000000000000000000, -1.000000000000000000 ) ) ;
#164 = AXIS2_PLACEMENT_3D ( 'NONE', #297, #22, #227 ) ;
#165 = CIRCLE ( 'NONE', #107, 57.50000000000000000 ) ;
#166 = DIRECTION ( 'NONE',  ( -0.000000000000000000, -0.000000000000000000, -1.000000000000000000 ) ) ;
#167 = CIRCLE ( 'NONE', #389, 55.74999999999998579 ) ;
#168 = EDGE_LOOP ( 'NONE', ( #301, #29 ) ) ;
#169 = EDGE_CURVE ( 'NONE', #256, #369, #5, .T. ) ;
#170 = DIRECTION ( 'NONE',  ( -0.000000000000000000, -0.000000000000000000, -1.000000000000000000 ) ) ;
#171 = ORIENTED_EDGE ( 'NONE', *, *, #221, .T. ) ;
#172 = PLANE ( 'NONE',  #321 ) ;
#173 = LOCAL_TIME ( 18, 12, 26.00000000000000000, #346 ) ;
#174 = CARTESIAN_POINT ( 'NONE',  ( 0.000000000000000000, 0.000000000000000000, 0.7162572561723867803 ) ) ;
#175 = EDGE_LOOP ( 'NONE', ( #113, #80, #47, #366 ) ) ;
#176 = CYLINDRICAL_SURFACE ( 'NONE', #243, 57.50000000000000000 ) ;
#177 = ORIENTED_EDGE ( 'NONE', *, *, #353, .T. ) ;
#178 = DIRECTION ( 'NONE',  ( -0.000000000000000000, -0.000000000000000000, -1.000000000000000000 ) ) ;
#179 = ORIENTED_EDGE ( 'NONE', *, *, #312, .T. ) ;
#180 = APPLICATION_PROTOCOL_DEFINITION ( 'international standard', 'config_control_design', 1994, #241 ) ;
#181 = FACE_BOUND ( 'NONE', #168, .T. ) ;
#182 = EDGE_CURVE ( 'NONE', #195, #337, #82, .T. ) ;
#183 = APPROVAL_STATUS ( 'not_yet_approved' ) ;
#184 = PERSON_AND_ORGANIZATION_ROLE ( 'design_owner' ) ;
#185 = AXIS2_PLACEMENT_3D ( 'NONE', #40, #163, #383 ) ;
#186 = ORIENTED_EDGE ( 'NONE', *, *, #30, .T. ) ;
#187 = DIRECTION ( 'NONE',  ( -0.000000000000000000, -0.000000000000000000, -1.000000000000000000 ) ) ;
#188 = CARTESIAN_POINT ( 'NONE',  ( 57.50000000000000000, 7.041719095097280485E-15, 3.316257256172377765 ) ) ;
#189 = VECTOR ( 'NONE', #259, 1000.000000000000000 ) ;
#190 = CYLINDRICAL_SURFACE ( 'NONE', #45, 57.50000000000000000 ) ;
#191 = DIRECTION ( 'NONE',  ( -0.000000000000000000, -0.000000000000000000, -1.000000000000000000 ) ) ;
#192 = ORIENTED_EDGE ( 'NONE', *, *, #221, .F. ) ;
#193 = DIRECTION ( 'NONE',  ( -1.000000000000000000, 0.000000000000000000, 0.000000000000000000 ) ) ;
#194 = PRODUCT_RELATED_PRODUCT_CATEGORY ( 'detail', '', ( #376 ) ) ;
#195 = VERTEX_POINT ( 'NONE', #393 ) ;
#196 = CC_DESIGN_APPROVAL ( #306, ( #382 ) ) ;
#197 = APPROVAL_PERSON_ORGANIZATION ( #385, #306, #254 ) ;
#198 = CARTESIAN_POINT ( 'NONE',  ( -55.74999999999998579, 0.000000000000000000, -13.58374274382761371 ) ) ;
#199 = FACE_BOUND ( 'NONE', #66, .T. ) ;
#200 = ORIENTED_EDGE ( 'NONE', *, *, #73, .F. ) ;
#201 = DIRECTION ( 'NONE',  ( -0.000000000000000000, -0.000000000000000000, -1.000000000000000000 ) ) ;
#202 = DIRECTION ( 'NONE',  ( -1.000000000000000000, 0.000000000000000000, 0.000000000000000000 ) ) ;
#203 = DIRECTION ( 'NONE',  ( 0.000000000000000000, 0.000000000000000000, 1.000000000000000000 ) ) ;
#204 = CC_DESIGN_PERSON_AND_ORGANIZATION_ASSIGNMENT ( #32, #1, ( #146 ) ) ;
#205 = ORIENTED_EDGE ( 'NONE', *, *, #263, .F. ) ;
#206 = DIRECTION ( 'NONE',  ( -1.000000000000000000, 0.000000000000000000, 0.000000000000000000 ) ) ;
#207 = ORIENTED_EDGE ( 'NONE', *, *, #23, .F. ) ;
#208 = APPLICATION_PROTOCOL_DEFINITION ( 'international standard', 'config_control_design', 1994, #285 ) ;
#209 = ORIENTED_EDGE ( 'NONE', *, *, #335, .F. ) ;
#210 = EDGE_CURVE ( 'NONE', #131, #86, #38, .T. ) ;
#211 = MECHANICAL_CONTEXT ( 'NONE', #285, 'mechanical' ) ;
#212 = CALENDAR_DATE ( 2024, 5, 7 ) ;
#213 = APPROVAL_ROLE ( '' ) ;
#214 = ORIENTED_EDGE ( 'NONE', *, *, #182, .T. ) ;
#215 = EDGE_CURVE ( 'NONE', #135, #195, #224, .T. ) ;
#216 = CIRCLE ( 'NONE', #128, 55.74999999999998579 ) ;
#217 = VECTOR ( 'NONE', #357, 1000.000000000000000 ) ;
#218 = DATE_AND_TIME ( #156, #136 ) ;
#219 = DIRECTION ( 'NONE',  ( -0.000000000000000000, -0.000000000000000000, -1.000000000000000000 ) ) ;
#220 = CARTESIAN_POINT ( 'NONE',  ( 0.000000000000000000, 0.000000000000000000, -13.58374274382762081 ) ) ;
#221 = EDGE_CURVE ( 'NONE', #104, #131, #216, .T. ) ;
#222 = CARTESIAN_POINT ( 'NONE',  ( 0.000000000000000000, 0.000000000000000000, -89.20212765957447232 ) ) ;
#223 = DIRECTION ( 'NONE',  ( -1.000000000000000000, 0.000000000000000000, 0.000000000000000000 ) ) ;
#224 = LINE ( 'NONE', #72, #375 ) ;
#225 = ADVANCED_FACE ( 'NONE', ( #160 ), #386, .F. ) ;
#226 = DIRECTION ( 'NONE',  ( 1.000000000000000000, 0.000000000000000000, -0.000000000000000000 ) ) ;
#227 = DIRECTION ( 'NONE',  ( -1.000000000000000000, 0.000000000000000000, 0.000000000000000000 ) ) ;
#228 = ORIENTED_EDGE ( 'NONE', *, *, #23, .T. ) ;
#229 = FACE_OUTER_BOUND ( 'NONE', #233, .T. ) ;
#230 = CARTESIAN_POINT ( 'NONE',  ( -53.75000000000000000, 0.000000000000000000, -10.28374274382761300 ) ) ;
#231 = EDGE_CURVE ( 'NONE', #369, #333, #138, .T. ) ;
#232 = DIRECTION ( 'NONE',  ( -1.000000000000000000, 0.000000000000000000, 0.000000000000000000 ) ) ;
#233 = EDGE_LOOP ( 'NONE', ( #15, #343, #265, #402 ) ) ;
#234 = CARTESIAN_POINT ( 'NONE',  ( 55.74999999999998579, 6.827405905246493187E-15, 0.7162572561723867803 ) ) ;
#235 = CIRCLE ( 'NONE', #367, 57.50000000000000000 ) ;
#236 = VERTEX_POINT ( 'NONE', #137 ) ;
#237 = PERSON_AND_ORGANIZATION ( #25, #302 ) ;
#238 = ADVANCED_FACE ( 'NONE', ( #295 ), #362, .F. ) ;
#239 = VERTEX_POINT ( 'NONE', #14 ) ;
#240 = DIRECTION ( 'NONE',  ( -1.000000000000000000, 0.000000000000000000, 0.000000000000000000 ) ) ;
#241 = APPLICATION_CONTEXT ( 'configuration controlled 3d designs of mechanical parts and assemblies' ) ;
#242 = DIRECTION ( 'NONE',  ( 0.000000000000000000, 0.000000000000000000, 1.000000000000000000 ) ) ;
#243 = AXIS2_PLACEMENT_3D ( 'NONE', #266, #401, #324 ) ;
#244 = VECTOR ( 'NONE', #130, 1000.000000000000000 ) ;
#245 = PERSON_AND_ORGANIZATION ( #25, #302 ) ;
#246 = PERSON_AND_ORGANIZATION_ROLE ( 'design_supplier' ) ;
#247 = DIRECTION ( 'NONE',  ( -0.000000000000000000, 0.000000000000000000, -1.000000000000000000 ) ) ;
#248 = DIRECTION ( 'NONE',  ( -1.000000000000000000, 0.000000000000000000, 0.000000000000000000 ) ) ;
#249 = CARTESIAN_POINT ( 'NONE',  ( 0.000000000000000000, 0.000000000000000000, -10.28374274382760944 ) ) ;
#250 = CC_DESIGN_DATE_AND_TIME_ASSIGNMENT ( #370, #119, ( #7 ) ) ;
#251 = DIRECTION ( 'NONE',  ( -1.000000000000000000, 0.000000000000000000, 0.000000000000000000 ) ) ;
#252 = CARTESIAN_POINT ( 'NONE',  ( 55.74999999999998579, 6.827405905246493187E-15, -13.58374274382762081 ) ) ;
#253 = CIRCLE ( 'NONE', #309, 57.50000000000000000 ) ;
#254 = APPROVAL_ROLE ( '' ) ;
#255 = CARTESIAN_POINT ( 'NONE',  ( 55.74999999999998579, 6.827405905246493187E-15, -89.20212765957447232 ) ) ;
#256 = VERTEX_POINT ( 'NONE', #257 ) ;
#257 = CARTESIAN_POINT ( 'NONE',  ( 55.74999999999998579, 6.827405905246493187E-15, 3.316257256172377765 ) ) ;
#258 = ORIENTED_EDGE ( 'NONE', *, *, #96, .T. ) ;
#259 = DIRECTION ( 'NONE',  ( -0.000000000000000000, -0.000000000000000000, -1.000000000000000000 ) ) ;
#260 = UNCERTAINTY_MEASURE_WITH_UNIT (LENGTH_MEASURE( 1.000000000000000082E-05 ), #64, 'distance_accuracy_value', 'NONE');
#261 = CIRCLE ( 'NONE', #19, 53.75000000000000000 ) ;
#262 = CARTESIAN_POINT ( 'NONE',  ( 0.000000000000000000, 0.000000000000000000, -89.20212765957447232 ) ) ;
#263 = EDGE_CURVE ( 'NONE', #53, #86, #342, .T. ) ;
#264 = FACE_BOUND ( 'NONE', #289, .T. ) ;
#265 = ORIENTED_EDGE ( 'NONE', *, *, #373, .T. ) ;
#266 = CARTESIAN_POINT ( 'NONE',  ( 0.000000000000000000, 0.000000000000000000, -89.20212765957447232 ) ) ;
#267 = EDGE_LOOP ( 'NONE', ( #157, #310 ) ) ;
#268 = AXIS2_PLACEMENT_3D ( 'NONE', #134, #203, #226 ) ;
#269 = ADVANCED_FACE ( 'NONE', ( #290, #363 ), #108, .T. ) ;
#270 = AXIS2_PLACEMENT_3D ( 'NONE', #198, #398, #232 ) ;
#271 = LINE ( 'NONE', #378, #359 ) ;
#272 = ORIENTED_EDGE ( 'NONE', *, *, #210, .T. ) ;
#273 = ADVANCED_BREP_SHAPE_REPRESENTATION ( 'guide verin Duteil', ( #44, #293 ), #74 ) ;
#274 = DATE_AND_TIME ( #152, #350 ) ;
#275 = CARTESIAN_POINT ( 'NONE',  ( 0.000000000000000000, 0.000000000000000000, -10.28374274382760944 ) ) ;
#276 = APPROVAL_DATE_TIME ( #274, #51 ) ;
#277 = CLOSED_SHELL ( 'NONE', ( #225, #326, #238, #360, #344, #143, #278, #319, #269, #43, #3, #58 ) ) ;
#278 = ADVANCED_FACE ( 'NONE', ( #199, #49 ), #172, .T. ) ;
#279 = COORDINATED_UNIVERSAL_TIME_OFFSET ( 1, 0, .AHEAD. ) ;
#280 = ORIENTED_EDGE ( 'NONE', *, *, #13, .T. ) ;
#281 = APPROVAL ( #377, 'UNSPECIFIED' ) ;
#282 = DIRECTION ( 'NONE',  ( -1.000000000000000000, 0.000000000000000000, 0.000000000000000000 ) ) ;
#283 = CYLINDRICAL_SURFACE ( 'NONE', #154, 53.75000000000000000 ) ;
#284 = FACE_OUTER_BOUND ( 'NONE', #17, .T. ) ;
#285 = APPLICATION_CONTEXT ( 'configuration controlled 3d designs of mechanical parts and assemblies' ) ;
#286 = DIRECTION ( 'NONE',  ( -1.000000000000000000, 0.000000000000000000, 0.000000000000000000 ) ) ;
#287 = AXIS2_PLACEMENT_3D ( 'NONE', #65, #92, #202 ) ;
#288 = LINE ( 'NONE', #105, #153 ) ;
#289 = EDGE_LOOP ( 'NONE', ( #205, #207 ) ) ;
#290 = FACE_BOUND ( 'NONE', #267, .T. ) ;
#291 = DIRECTION ( 'NONE',  ( -1.000000000000000000, 0.000000000000000000, 0.000000000000000000 ) ) ;
#292 = CC_DESIGN_PERSON_AND_ORGANIZATION_ASSIGNMENT ( #237, #63, ( #7 ) ) ;
#293 = AXIS2_PLACEMENT_3D ( 'NONE', #305, #242, #150 ) ;
#294 = CIRCLE ( 'NONE', #185, 53.75000000000000000 ) ;
#295 = FACE_OUTER_BOUND ( 'NONE', #140, .T. ) ;
#296 = VERTEX_POINT ( 'NONE', #109 ) ;
#297 = CARTESIAN_POINT ( 'NONE',  ( 0.000000000000000000, 0.000000000000000000, -13.58374274382762081 ) ) ;
#298 = ORIENTED_EDGE ( 'NONE', *, *, #231, .T. ) ;
#299 = EDGE_CURVE ( 'NONE', #239, #296, #315, .T. ) ;
#300 = DATE_AND_TIME ( #212, #94 ) ;
#301 = ORIENTED_EDGE ( 'NONE', *, *, #89, .F. ) ;
#302 = ORGANIZATION ( 'UNSPECIFIED', 'UNSPECIFIED', '' ) ;
#303 = PLANE ( 'NONE',  #404 ) ;
#304 = CARTESIAN_POINT ( 'NONE',  ( -55.74999999999998579, 0.000000000000000000, -89.20212765957447232 ) ) ;
#305 = CARTESIAN_POINT ( 'NONE',  ( 0.000000000000000000, 0.000000000000000000, 0.000000000000000000 ) ) ;
#306 = APPROVAL ( #317, 'UNSPECIFIED' ) ;
#307 = AXIS2_PLACEMENT_3D ( 'NONE', #220, #98, #286 ) ;
#308 = AXIS2_PLACEMENT_3D ( 'NONE', #84, #178, #206 ) ;
#309 = AXIS2_PLACEMENT_3D ( 'NONE', #36, #166, #248 ) ;
#310 = ORIENTED_EDGE ( 'NONE', *, *, #127, .T. ) ;
#311 = ORIENTED_EDGE ( 'NONE', *, *, #373, .F. ) ;
#312 = EDGE_CURVE ( 'NONE', #236, #239, #56, .T. ) ;
#313 = CARTESIAN_POINT ( 'NONE',  ( 0.000000000000000000, 0.000000000000000000, -89.20212765957447232 ) ) ;
#314 = FACE_OUTER_BOUND ( 'NONE', #175, .T. ) ;
#315 = CIRCLE ( 'NONE', #118, 53.75000000000000000 ) ;
#316 = CARTESIAN_POINT ( 'NONE',  ( 0.000000000000000000, 0.000000000000000000, -10.28374274382760944 ) ) ;
#317 = APPROVAL_STATUS ( 'not_yet_approved' ) ;
#318 = CARTESIAN_POINT ( 'NONE',  ( 55.74999999999998579, 6.827405905246493187E-15, -89.20212765957447232 ) ) ;
#319 = ADVANCED_FACE ( 'NONE', ( #229 ), #139, .F. ) ;
#320 = DIRECTION ( 'NONE',  ( -1.000000000000000000, 0.000000000000000000, 0.000000000000000000 ) ) ;
#321 = AXIS2_PLACEMENT_3D ( 'NONE', #397, #79, #75 ) ;
#322 = CC_DESIGN_APPROVAL ( #281, ( #146 ) ) ;
#323 = ORIENTED_EDGE ( 'NONE', *, *, #263, .T. ) ;
#324 = DIRECTION ( 'NONE',  ( -1.000000000000000000, 0.000000000000000000, 0.000000000000000000 ) ) ;
#325 = EDGE_LOOP ( 'NONE', ( #20, #34 ) ) ;
#326 = ADVANCED_FACE ( 'NONE', ( #26 ), #132, .F. ) ;
#327 = DIRECTION ( 'NONE',  ( -0.000000000000000000, -0.000000000000000000, -1.000000000000000000 ) ) ;
#328 = DIRECTION ( 'NONE',  ( -1.000000000000000000, 0.000000000000000000, 0.000000000000000000 ) ) ;
#329 = EDGE_LOOP ( 'NONE', ( #41, #272, #228, #27 ) ) ;
#330 = AXIS2_PLACEMENT_3D ( 'NONE', #316, #159, #95 ) ;
#331 = CIRCLE ( 'NONE', #21, 55.74999999999998579 ) ;
#332 = FACE_OUTER_BOUND ( 'NONE', #4, .T. ) ;
#333 = VERTEX_POINT ( 'NONE', #50 ) ;
#334 = DIRECTION ( 'NONE',  ( -0.000000000000000000, -0.000000000000000000, -1.000000000000000000 ) ) ;
#335 = EDGE_CURVE ( 'NONE', #9, #236, #261, .T. ) ;
#336 = ORIENTED_EDGE ( 'NONE', *, *, #210, .F. ) ;
#337 = VERTEX_POINT ( 'NONE', #106 ) ;
#338 = PERSON_AND_ORGANIZATION ( #25, #302 ) ;
#339 = LINE ( 'NONE', #304, #87 ) ;
#340 = APPROVAL_DATE_TIME ( #300, #281 ) ;
#341 = SECURITY_CLASSIFICATION_LEVEL ( 'unclassified' ) ;
#342 = CIRCLE ( 'NONE', #164, 55.74999999999998579 ) ;
#343 = ORIENTED_EDGE ( 'NONE', *, *, #30, .F. ) ;
#344 = ADVANCED_FACE ( 'NONE', ( #332, #264 ), #110, .T. ) ;
#345 = EDGE_LOOP ( 'NONE', ( #114, #35, #200, #77 ) ) ;
#346 = COORDINATED_UNIVERSAL_TIME_OFFSET ( 1, 0, .AHEAD. ) ;
#347 = CARTESIAN_POINT ( 'NONE',  ( 0.000000000000000000, 0.000000000000000000, -89.20212765957447232 ) ) ;
#348 = CARTESIAN_POINT ( 'NONE',  ( 0.000000000000000000, 0.000000000000000000, -10.28374274382760944 ) ) ;
#349 = CARTESIAN_POINT ( 'NONE',  ( 0.000000000000000000, 0.000000000000000000, 3.316257256172377765 ) ) ;
#350 = LOCAL_TIME ( 18, 12, 26.00000000000000000, #279 ) ;
#351 = AXIS2_PLACEMENT_3D ( 'NONE', #222, #327, #48 ) ;
#352 = CALENDAR_DATE ( 2024, 5, 7 ) ;
#353 = EDGE_CURVE ( 'NONE', #104, #53, #365, .T. ) ;
#354 = PRODUCT_DEFINITION_SHAPE ( 'NONE', 'NONE',  #7 ) ;
#355 = CYLINDRICAL_SURFACE ( 'NONE', #99, 55.74999999999998579 ) ;
#356 = DATE_TIME_ROLE ( 'classification_date' ) ;
#357 = DIRECTION ( 'NONE',  ( -0.000000000000000000, -0.000000000000000000, -1.000000000000000000 ) ) ;
#358 = DIRECTION ( 'NONE',  ( -1.000000000000000000, 0.000000000000000000, 0.000000000000000000 ) ) ;
#359 = VECTOR ( 'NONE', #372, 1000.000000000000000 ) ;
#360 = ADVANCED_FACE ( 'NONE', ( #54 ), #176, .T. ) ;
#361 = ORIENTED_EDGE ( 'NONE', *, *, #312, .F. ) ;
#362 = CYLINDRICAL_SURFACE ( 'NONE', #93, 55.74999999999998579 ) ;
#363 = FACE_OUTER_BOUND ( 'NONE', #325, .T. ) ;
#364 = ORIENTED_EDGE ( 'NONE', *, *, #13, .F. ) ;
#365 = LINE ( 'NONE', #81, #129 ) ;
#366 = ORIENTED_EDGE ( 'NONE', *, *, #182, .F. ) ;
#367 = AXIS2_PLACEMENT_3D ( 'NONE', #42, #67, #251 ) ;
#368 = DIRECTION ( 'NONE',  ( -1.000000000000000000, 0.000000000000000000, 0.000000000000000000 ) ) ;
#369 = VERTEX_POINT ( 'NONE', #234 ) ;
#370 = DATE_AND_TIME ( #408, #62 ) ;
#371 = VERTEX_POINT ( 'NONE', #405 ) ;
#372 = DIRECTION ( 'NONE',  ( -0.000000000000000000, -0.000000000000000000, -1.000000000000000000 ) ) ;
#373 = EDGE_CURVE ( 'NONE', #142, #333, #339, .T. ) ;
#374 = APPROVAL_ROLE ( '' ) ;
#375 = VECTOR ( 'NONE', #187, 1000.000000000000000 ) ;
#376 = PRODUCT ( 'guide verin Duteil', 'guide verin Duteil', '', ( #211 ) ) ;
#377 = APPROVAL_STATUS ( 'not_yet_approved' ) ;
#378 = CARTESIAN_POINT ( 'NONE',  ( -57.50000000000000000, 0.000000000000000000, -89.20212765957447232 ) ) ;
#379 = EDGE_CURVE ( 'NONE', #371, #337, #271, .T. ) ;
#380 = DIRECTION ( 'NONE',  ( -1.000000000000000000, 0.000000000000000000, 0.000000000000000000 ) ) ;
#381 = APPROVAL_PERSON_ORGANIZATION ( #245, #281, #213 ) ;
#382 = SECURITY_CLASSIFICATION ( '', '', #341 ) ;
#383 = DIRECTION ( 'NONE',  ( -1.000000000000000000, 0.000000000000000000, 0.000000000000000000 ) ) ;
#384 = DIRECTION ( 'NONE',  ( -1.000000000000000000, 0.000000000000000000, 0.000000000000000000 ) ) ;
#385 = PERSON_AND_ORGANIZATION ( #25, #302 ) ;
#386 = CYLINDRICAL_SURFACE ( 'NONE', #351, 55.74999999999998579 ) ;
#387 = CC_DESIGN_PERSON_AND_ORGANIZATION_ASSIGNMENT ( #28, #144, ( #382 ) ) ;
#388 = DATE_AND_TIME ( #352, #173 ) ;
#389 = AXIS2_PLACEMENT_3D ( 'NONE', #249, #71, #282 ) ;
#390 = FACE_OUTER_BOUND ( 'NONE', #85, .T. ) ;
#391 = CIRCLE ( 'NONE', #330, 53.75000000000000000 ) ;
#392 = EDGE_LOOP ( 'NONE', ( #61, #24 ) ) ;
#393 = CARTESIAN_POINT ( 'NONE',  ( 57.50000000000000000, 7.041719095097280485E-15, -13.58374274382762081 ) ) ;
#394 = DIRECTION ( 'NONE',  ( -1.000000000000000000, 0.000000000000000000, 0.000000000000000000 ) ) ;
#395 = EDGE_CURVE ( 'NONE', #371, #135, #165, .T. ) ;
#396 = CARTESIAN_POINT ( 'NONE',  ( 0.000000000000000000, 0.000000000000000000, -89.20212765957447232 ) ) ;
#397 = CARTESIAN_POINT ( 'NONE',  ( -57.50000000000000000, 0.000000000000000000, 3.316257256172384871 ) ) ;
#398 = DIRECTION ( 'NONE',  ( -0.000000000000000000, 0.000000000000000000, -1.000000000000000000 ) ) ;
#399 = EDGE_LOOP ( 'NONE', ( #171, #111 ) ) ;
#400 = CC_DESIGN_PERSON_AND_ORGANIZATION_ASSIGNMENT ( #148, #184, ( #376 ) ) ;
#401 = DIRECTION ( 'NONE',  ( -0.000000000000000000, -0.000000000000000000, -1.000000000000000000 ) ) ;
#402 = ORIENTED_EDGE ( 'NONE', *, *, #33, .T. ) ;
#403 = CIRCLE ( 'NONE', #145, 55.74999999999998579 ) ;
#404 = AXIS2_PLACEMENT_3D ( 'NONE', #230, #247, #31 ) ;
#405 = CARTESIAN_POINT ( 'NONE',  ( -57.50000000000000000, 0.000000000000000000, 3.316257256172377765 ) ) ;
#406 = EDGE_LOOP ( 'NONE', ( #83, #179, #55, #133 ) ) ;
#407 = CARTESIAN_POINT ( 'NONE',  ( 0.000000000000000000, 0.000000000000000000, 3.316257256172377765 ) ) ;
#408 = CALENDAR_DATE ( 2024, 5, 7 ) ;
#409 = AXIS2_PLACEMENT_3D ( 'NONE', #2, #121, #380 ) ;
ENDSEC;
END-ISO-10303-21;
