ISO-10303-21;
HEADER;
/* Generated by software containing ST-Developer
 * from STEP Tools, Inc. (www.steptools.com) 
 */

FILE_DESCRIPTION(
/* description */ (''),
/* implementation_level */ '2;1');

FILE_NAME(
/* name */ 'Poids avant chassis hybride.step',
/* time_stamp */ '2024-04-28T21:27:45+01:00',
/* author */ (''),
/* organization */ (''),
/* preprocessor_version */ 'ST-DEVELOPER v20',
/* originating_system */ 'Autodesk Translation Framework v12.20.1.177',

/* authorisation */ '');

FILE_SCHEMA (('AUTOMOTIVE_DESIGN { 1 0 10303 214 3 1 1 }'));
ENDSEC;

DATA;
#10=MECHANICAL_DESIGN_GEOMETRIC_PRESENTATION_REPRESENTATION('',(#13),#605);
#11=SHAPE_REPRESENTATION_RELATIONSHIP('SRR','None',#612,#12);
#12=ADVANCED_BREP_SHAPE_REPRESENTATION('',(#14),#604);
#13=STYLED_ITEM('',(#624),#14);
#14=MANIFOLD_SOLID_BREP('Corps12',#349);
#15=CYLINDRICAL_SURFACE('',#383,2.);
#16=CYLINDRICAL_SURFACE('',#385,2.);
#17=CYLINDRICAL_SURFACE('',#387,2.);
#18=CYLINDRICAL_SURFACE('',#389,2.);
#19=CYLINDRICAL_SURFACE('',#391,1.);
#20=CYLINDRICAL_SURFACE('',#393,1.);
#21=CYLINDRICAL_SURFACE('',#395,1.);
#22=CYLINDRICAL_SURFACE('',#397,1.);
#23=FACE_BOUND('',#46,.T.);
#24=FACE_OUTER_BOUND('',#43,.T.);
#25=FACE_OUTER_BOUND('',#44,.T.);
#26=FACE_OUTER_BOUND('',#45,.T.);
#27=FACE_OUTER_BOUND('',#47,.T.);
#28=FACE_OUTER_BOUND('',#48,.T.);
#29=FACE_OUTER_BOUND('',#49,.T.);
#30=FACE_OUTER_BOUND('',#50,.T.);
#31=FACE_OUTER_BOUND('',#51,.T.);
#32=FACE_OUTER_BOUND('',#52,.T.);
#33=FACE_OUTER_BOUND('',#53,.T.);
#34=FACE_OUTER_BOUND('',#54,.T.);
#35=FACE_OUTER_BOUND('',#55,.T.);
#36=FACE_OUTER_BOUND('',#56,.T.);
#37=FACE_OUTER_BOUND('',#57,.T.);
#38=FACE_OUTER_BOUND('',#58,.T.);
#39=FACE_OUTER_BOUND('',#59,.T.);
#40=FACE_OUTER_BOUND('',#60,.T.);
#41=FACE_OUTER_BOUND('',#61,.T.);
#42=FACE_OUTER_BOUND('',#62,.T.);
#43=EDGE_LOOP('',(#223,#224,#225,#226,#227,#228,#229,#230));
#44=EDGE_LOOP('',(#231,#232,#233,#234,#235,#236,#237,#238));
#45=EDGE_LOOP('',(#239,#240,#241,#242,#243,#244,#245,#246));
#46=EDGE_LOOP('',(#247,#248,#249,#250,#251,#252,#253,#254));
#47=EDGE_LOOP('',(#255,#256,#257,#258));
#48=EDGE_LOOP('',(#259,#260,#261,#262));
#49=EDGE_LOOP('',(#263,#264,#265,#266));
#50=EDGE_LOOP('',(#267,#268,#269,#270));
#51=EDGE_LOOP('',(#271,#272,#273,#274));
#52=EDGE_LOOP('',(#275,#276,#277,#278));
#53=EDGE_LOOP('',(#279,#280,#281,#282));
#54=EDGE_LOOP('',(#283,#284,#285,#286));
#55=EDGE_LOOP('',(#287,#288,#289,#290));
#56=EDGE_LOOP('',(#291,#292,#293,#294));
#57=EDGE_LOOP('',(#295,#296,#297,#298));
#58=EDGE_LOOP('',(#299,#300,#301,#302));
#59=EDGE_LOOP('',(#303,#304,#305,#306));
#60=EDGE_LOOP('',(#307,#308,#309,#310));
#61=EDGE_LOOP('',(#311,#312,#313,#314));
#62=EDGE_LOOP('',(#315,#316,#317,#318));
#63=LINE('',#508,#95);
#64=LINE('',#512,#96);
#65=LINE('',#516,#97);
#66=LINE('',#519,#98);
#67=LINE('',#525,#99);
#68=LINE('',#529,#100);
#69=LINE('',#533,#101);
#70=LINE('',#536,#102);
#71=LINE('',#542,#103);
#72=LINE('',#546,#104);
#73=LINE('',#550,#105);
#74=LINE('',#553,#106);
#75=LINE('',#556,#107);
#76=LINE('',#560,#108);
#77=LINE('',#564,#109);
#78=LINE('',#568,#110);
#79=LINE('',#571,#111);
#80=LINE('',#572,#112);
#81=LINE('',#574,#113);
#82=LINE('',#576,#114);
#83=LINE('',#577,#115);
#84=LINE('',#580,#116);
#85=LINE('',#581,#117);
#86=LINE('',#584,#118);
#87=LINE('',#587,#119);
#88=LINE('',#588,#120);
#89=LINE('',#590,#121);
#90=LINE('',#592,#122);
#91=LINE('',#593,#123);
#92=LINE('',#596,#124);
#93=LINE('',#597,#125);
#94=LINE('',#600,#126);
#95=VECTOR('',#404,10.);
#96=VECTOR('',#407,10.);
#97=VECTOR('',#410,10.);
#98=VECTOR('',#413,10.);
#99=VECTOR('',#418,10.);
#100=VECTOR('',#421,10.);
#101=VECTOR('',#424,10.);
#102=VECTOR('',#427,10.);
#103=VECTOR('',#432,10.);
#104=VECTOR('',#435,10.);
#105=VECTOR('',#438,10.);
#106=VECTOR('',#441,10.);
#107=VECTOR('',#442,10.);
#108=VECTOR('',#445,10.);
#109=VECTOR('',#448,10.);
#110=VECTOR('',#451,10.);
#111=VECTOR('',#456,10.);
#112=VECTOR('',#457,10.);
#113=VECTOR('',#460,10.);
#114=VECTOR('',#463,10.);
#115=VECTOR('',#464,10.);
#116=VECTOR('',#469,10.);
#117=VECTOR('',#470,10.);
#118=VECTOR('',#475,10.);
#119=VECTOR('',#480,10.);
#120=VECTOR('',#481,10.);
#121=VECTOR('',#484,10.);
#122=VECTOR('',#487,10.);
#123=VECTOR('',#488,10.);
#124=VECTOR('',#493,10.);
#125=VECTOR('',#494,10.);
#126=VECTOR('',#499,10.);
#127=CIRCLE('',#364,1.);
#128=CIRCLE('',#365,1.);
#129=CIRCLE('',#366,1.);
#130=CIRCLE('',#367,1.);
#131=CIRCLE('',#369,2.);
#132=CIRCLE('',#370,2.);
#133=CIRCLE('',#371,2.);
#134=CIRCLE('',#372,2.);
#135=CIRCLE('',#374,2.);
#136=CIRCLE('',#375,2.);
#137=CIRCLE('',#376,2.);
#138=CIRCLE('',#377,2.);
#139=CIRCLE('',#378,1.);
#140=CIRCLE('',#379,1.);
#141=CIRCLE('',#380,1.);
#142=CIRCLE('',#381,1.);
#143=VERTEX_POINT('',#504);
#144=VERTEX_POINT('',#505);
#145=VERTEX_POINT('',#507);
#146=VERTEX_POINT('',#509);
#147=VERTEX_POINT('',#511);
#148=VERTEX_POINT('',#513);
#149=VERTEX_POINT('',#515);
#150=VERTEX_POINT('',#517);
#151=VERTEX_POINT('',#521);
#152=VERTEX_POINT('',#522);
#153=VERTEX_POINT('',#524);
#154=VERTEX_POINT('',#526);
#155=VERTEX_POINT('',#528);
#156=VERTEX_POINT('',#530);
#157=VERTEX_POINT('',#532);
#158=VERTEX_POINT('',#534);
#159=VERTEX_POINT('',#538);
#160=VERTEX_POINT('',#539);
#161=VERTEX_POINT('',#541);
#162=VERTEX_POINT('',#543);
#163=VERTEX_POINT('',#545);
#164=VERTEX_POINT('',#547);
#165=VERTEX_POINT('',#549);
#166=VERTEX_POINT('',#551);
#167=VERTEX_POINT('',#554);
#168=VERTEX_POINT('',#555);
#169=VERTEX_POINT('',#557);
#170=VERTEX_POINT('',#559);
#171=VERTEX_POINT('',#561);
#172=VERTEX_POINT('',#563);
#173=VERTEX_POINT('',#565);
#174=VERTEX_POINT('',#567);
#175=EDGE_CURVE('',#143,#144,#127,.T.);
#176=EDGE_CURVE('',#144,#145,#63,.T.);
#177=EDGE_CURVE('',#145,#146,#128,.T.);
#178=EDGE_CURVE('',#146,#147,#64,.T.);
#179=EDGE_CURVE('',#147,#148,#129,.T.);
#180=EDGE_CURVE('',#148,#149,#65,.T.);
#181=EDGE_CURVE('',#149,#150,#130,.T.);
#182=EDGE_CURVE('',#150,#143,#66,.T.);
#183=EDGE_CURVE('',#151,#152,#131,.T.);
#184=EDGE_CURVE('',#152,#153,#67,.T.);
#185=EDGE_CURVE('',#153,#154,#132,.T.);
#186=EDGE_CURVE('',#154,#155,#68,.T.);
#187=EDGE_CURVE('',#155,#156,#133,.T.);
#188=EDGE_CURVE('',#156,#157,#69,.T.);
#189=EDGE_CURVE('',#157,#158,#134,.T.);
#190=EDGE_CURVE('',#158,#151,#70,.T.);
#191=EDGE_CURVE('',#159,#160,#135,.T.);
#192=EDGE_CURVE('',#159,#161,#71,.T.);
#193=EDGE_CURVE('',#162,#161,#136,.T.);
#194=EDGE_CURVE('',#162,#163,#72,.T.);
#195=EDGE_CURVE('',#164,#163,#137,.T.);
#196=EDGE_CURVE('',#164,#165,#73,.T.);
#197=EDGE_CURVE('',#166,#165,#138,.T.);
#198=EDGE_CURVE('',#166,#160,#74,.T.);
#199=EDGE_CURVE('',#167,#168,#75,.T.);
#200=EDGE_CURVE('',#167,#169,#139,.T.);
#201=EDGE_CURVE('',#170,#169,#76,.T.);
#202=EDGE_CURVE('',#170,#171,#140,.T.);
#203=EDGE_CURVE('',#172,#171,#77,.T.);
#204=EDGE_CURVE('',#172,#173,#141,.T.);
#205=EDGE_CURVE('',#174,#173,#78,.T.);
#206=EDGE_CURVE('',#174,#168,#142,.T.);
#207=EDGE_CURVE('',#164,#151,#79,.T.);
#208=EDGE_CURVE('',#158,#165,#80,.T.);
#209=EDGE_CURVE('',#166,#157,#81,.T.);
#210=EDGE_CURVE('',#162,#153,#82,.T.);
#211=EDGE_CURVE('',#152,#163,#83,.T.);
#212=EDGE_CURVE('',#159,#155,#84,.T.);
#213=EDGE_CURVE('',#154,#161,#85,.T.);
#214=EDGE_CURVE('',#156,#160,#86,.T.);
#215=EDGE_CURVE('',#144,#170,#87,.T.);
#216=EDGE_CURVE('',#169,#145,#88,.T.);
#217=EDGE_CURVE('',#146,#167,#89,.T.);
#218=EDGE_CURVE('',#150,#172,#90,.T.);
#219=EDGE_CURVE('',#171,#143,#91,.T.);
#220=EDGE_CURVE('',#148,#174,#92,.T.);
#221=EDGE_CURVE('',#173,#149,#93,.T.);
#222=EDGE_CURVE('',#168,#147,#94,.T.);
#223=ORIENTED_EDGE('',*,*,#175,.T.);
#224=ORIENTED_EDGE('',*,*,#176,.T.);
#225=ORIENTED_EDGE('',*,*,#177,.T.);
#226=ORIENTED_EDGE('',*,*,#178,.T.);
#227=ORIENTED_EDGE('',*,*,#179,.T.);
#228=ORIENTED_EDGE('',*,*,#180,.T.);
#229=ORIENTED_EDGE('',*,*,#181,.T.);
#230=ORIENTED_EDGE('',*,*,#182,.T.);
#231=ORIENTED_EDGE('',*,*,#183,.T.);
#232=ORIENTED_EDGE('',*,*,#184,.T.);
#233=ORIENTED_EDGE('',*,*,#185,.T.);
#234=ORIENTED_EDGE('',*,*,#186,.T.);
#235=ORIENTED_EDGE('',*,*,#187,.T.);
#236=ORIENTED_EDGE('',*,*,#188,.T.);
#237=ORIENTED_EDGE('',*,*,#189,.T.);
#238=ORIENTED_EDGE('',*,*,#190,.T.);
#239=ORIENTED_EDGE('',*,*,#191,.F.);
#240=ORIENTED_EDGE('',*,*,#192,.T.);
#241=ORIENTED_EDGE('',*,*,#193,.F.);
#242=ORIENTED_EDGE('',*,*,#194,.T.);
#243=ORIENTED_EDGE('',*,*,#195,.F.);
#244=ORIENTED_EDGE('',*,*,#196,.T.);
#245=ORIENTED_EDGE('',*,*,#197,.F.);
#246=ORIENTED_EDGE('',*,*,#198,.T.);
#247=ORIENTED_EDGE('',*,*,#199,.F.);
#248=ORIENTED_EDGE('',*,*,#200,.T.);
#249=ORIENTED_EDGE('',*,*,#201,.F.);
#250=ORIENTED_EDGE('',*,*,#202,.T.);
#251=ORIENTED_EDGE('',*,*,#203,.F.);
#252=ORIENTED_EDGE('',*,*,#204,.T.);
#253=ORIENTED_EDGE('',*,*,#205,.F.);
#254=ORIENTED_EDGE('',*,*,#206,.T.);
#255=ORIENTED_EDGE('',*,*,#207,.T.);
#256=ORIENTED_EDGE('',*,*,#190,.F.);
#257=ORIENTED_EDGE('',*,*,#208,.T.);
#258=ORIENTED_EDGE('',*,*,#196,.F.);
#259=ORIENTED_EDGE('',*,*,#197,.T.);
#260=ORIENTED_EDGE('',*,*,#208,.F.);
#261=ORIENTED_EDGE('',*,*,#189,.F.);
#262=ORIENTED_EDGE('',*,*,#209,.F.);
#263=ORIENTED_EDGE('',*,*,#210,.T.);
#264=ORIENTED_EDGE('',*,*,#184,.F.);
#265=ORIENTED_EDGE('',*,*,#211,.T.);
#266=ORIENTED_EDGE('',*,*,#194,.F.);
#267=ORIENTED_EDGE('',*,*,#195,.T.);
#268=ORIENTED_EDGE('',*,*,#211,.F.);
#269=ORIENTED_EDGE('',*,*,#183,.F.);
#270=ORIENTED_EDGE('',*,*,#207,.F.);
#271=ORIENTED_EDGE('',*,*,#212,.T.);
#272=ORIENTED_EDGE('',*,*,#186,.F.);
#273=ORIENTED_EDGE('',*,*,#213,.T.);
#274=ORIENTED_EDGE('',*,*,#192,.F.);
#275=ORIENTED_EDGE('',*,*,#193,.T.);
#276=ORIENTED_EDGE('',*,*,#213,.F.);
#277=ORIENTED_EDGE('',*,*,#185,.F.);
#278=ORIENTED_EDGE('',*,*,#210,.F.);
#279=ORIENTED_EDGE('',*,*,#214,.T.);
#280=ORIENTED_EDGE('',*,*,#198,.F.);
#281=ORIENTED_EDGE('',*,*,#209,.T.);
#282=ORIENTED_EDGE('',*,*,#188,.F.);
#283=ORIENTED_EDGE('',*,*,#191,.T.);
#284=ORIENTED_EDGE('',*,*,#214,.F.);
#285=ORIENTED_EDGE('',*,*,#187,.F.);
#286=ORIENTED_EDGE('',*,*,#212,.F.);
#287=ORIENTED_EDGE('',*,*,#215,.T.);
#288=ORIENTED_EDGE('',*,*,#201,.T.);
#289=ORIENTED_EDGE('',*,*,#216,.T.);
#290=ORIENTED_EDGE('',*,*,#176,.F.);
#291=ORIENTED_EDGE('',*,*,#200,.F.);
#292=ORIENTED_EDGE('',*,*,#217,.F.);
#293=ORIENTED_EDGE('',*,*,#177,.F.);
#294=ORIENTED_EDGE('',*,*,#216,.F.);
#295=ORIENTED_EDGE('',*,*,#218,.T.);
#296=ORIENTED_EDGE('',*,*,#203,.T.);
#297=ORIENTED_EDGE('',*,*,#219,.T.);
#298=ORIENTED_EDGE('',*,*,#182,.F.);
#299=ORIENTED_EDGE('',*,*,#202,.F.);
#300=ORIENTED_EDGE('',*,*,#215,.F.);
#301=ORIENTED_EDGE('',*,*,#175,.F.);
#302=ORIENTED_EDGE('',*,*,#219,.F.);
#303=ORIENTED_EDGE('',*,*,#220,.T.);
#304=ORIENTED_EDGE('',*,*,#205,.T.);
#305=ORIENTED_EDGE('',*,*,#221,.T.);
#306=ORIENTED_EDGE('',*,*,#180,.F.);
#307=ORIENTED_EDGE('',*,*,#204,.F.);
#308=ORIENTED_EDGE('',*,*,#218,.F.);
#309=ORIENTED_EDGE('',*,*,#181,.F.);
#310=ORIENTED_EDGE('',*,*,#221,.F.);
#311=ORIENTED_EDGE('',*,*,#222,.T.);
#312=ORIENTED_EDGE('',*,*,#178,.F.);
#313=ORIENTED_EDGE('',*,*,#217,.T.);
#314=ORIENTED_EDGE('',*,*,#199,.T.);
#315=ORIENTED_EDGE('',*,*,#206,.F.);
#316=ORIENTED_EDGE('',*,*,#220,.F.);
#317=ORIENTED_EDGE('',*,*,#179,.F.);
#318=ORIENTED_EDGE('',*,*,#222,.F.);
#319=PLANE('',#363);
#320=PLANE('',#368);
#321=PLANE('',#373);
#322=PLANE('',#382);
#323=PLANE('',#384);
#324=PLANE('',#386);
#325=PLANE('',#388);
#326=PLANE('',#390);
#327=PLANE('',#392);
#328=PLANE('',#394);
#329=PLANE('',#396);
#330=ADVANCED_FACE('',(#24),#319,.F.);
#331=ADVANCED_FACE('',(#25),#320,.T.);
#332=ADVANCED_FACE('',(#26,#23),#321,.T.);
#333=ADVANCED_FACE('',(#27),#322,.T.);
#334=ADVANCED_FACE('',(#28),#15,.T.);
#335=ADVANCED_FACE('',(#29),#323,.T.);
#336=ADVANCED_FACE('',(#30),#16,.T.);
#337=ADVANCED_FACE('',(#31),#324,.T.);
#338=ADVANCED_FACE('',(#32),#17,.T.);
#339=ADVANCED_FACE('',(#33),#325,.T.);
#340=ADVANCED_FACE('',(#34),#18,.T.);
#341=ADVANCED_FACE('',(#35),#326,.T.);
#342=ADVANCED_FACE('',(#36),#19,.T.);
#343=ADVANCED_FACE('',(#37),#327,.T.);
#344=ADVANCED_FACE('',(#38),#20,.T.);
#345=ADVANCED_FACE('',(#39),#328,.T.);
#346=ADVANCED_FACE('',(#40),#21,.T.);
#347=ADVANCED_FACE('',(#41),#329,.T.);
#348=ADVANCED_FACE('',(#42),#22,.T.);
#349=CLOSED_SHELL('',(#330,#331,#332,#333,#334,#335,#336,#337,#338,#339,
#340,#341,#342,#343,#344,#345,#346,#347,#348));
#350=DERIVED_UNIT_ELEMENT(#352,1.);
#351=DERIVED_UNIT_ELEMENT(#607,-3.);
#352=(
MASS_UNIT()
NAMED_UNIT(*)
SI_UNIT(.KILO.,.GRAM.)
);
#353=DERIVED_UNIT((#350,#351));
#354=MEASURE_REPRESENTATION_ITEM('density measure',
POSITIVE_RATIO_MEASURE(7850.),#353);
#355=PROPERTY_DEFINITION_REPRESENTATION(#360,#357);
#356=PROPERTY_DEFINITION_REPRESENTATION(#361,#358);
#357=REPRESENTATION('material name',(#359),#604);
#358=REPRESENTATION('density',(#354),#604);
#359=DESCRIPTIVE_REPRESENTATION_ITEM('Acier','Acier');
#360=PROPERTY_DEFINITION('material property','material name',#614);
#361=PROPERTY_DEFINITION('material property','density of part',#614);
#362=AXIS2_PLACEMENT_3D('',#502,#398,#399);
#363=AXIS2_PLACEMENT_3D('',#503,#400,#401);
#364=AXIS2_PLACEMENT_3D('',#506,#402,#403);
#365=AXIS2_PLACEMENT_3D('',#510,#405,#406);
#366=AXIS2_PLACEMENT_3D('',#514,#408,#409);
#367=AXIS2_PLACEMENT_3D('',#518,#411,#412);
#368=AXIS2_PLACEMENT_3D('',#520,#414,#415);
#369=AXIS2_PLACEMENT_3D('',#523,#416,#417);
#370=AXIS2_PLACEMENT_3D('',#527,#419,#420);
#371=AXIS2_PLACEMENT_3D('',#531,#422,#423);
#372=AXIS2_PLACEMENT_3D('',#535,#425,#426);
#373=AXIS2_PLACEMENT_3D('',#537,#428,#429);
#374=AXIS2_PLACEMENT_3D('',#540,#430,#431);
#375=AXIS2_PLACEMENT_3D('',#544,#433,#434);
#376=AXIS2_PLACEMENT_3D('',#548,#436,#437);
#377=AXIS2_PLACEMENT_3D('',#552,#439,#440);
#378=AXIS2_PLACEMENT_3D('',#558,#443,#444);
#379=AXIS2_PLACEMENT_3D('',#562,#446,#447);
#380=AXIS2_PLACEMENT_3D('',#566,#449,#450);
#381=AXIS2_PLACEMENT_3D('',#569,#452,#453);
#382=AXIS2_PLACEMENT_3D('',#570,#454,#455);
#383=AXIS2_PLACEMENT_3D('',#573,#458,#459);
#384=AXIS2_PLACEMENT_3D('',#575,#461,#462);
#385=AXIS2_PLACEMENT_3D('',#578,#465,#466);
#386=AXIS2_PLACEMENT_3D('',#579,#467,#468);
#387=AXIS2_PLACEMENT_3D('',#582,#471,#472);
#388=AXIS2_PLACEMENT_3D('',#583,#473,#474);
#389=AXIS2_PLACEMENT_3D('',#585,#476,#477);
#390=AXIS2_PLACEMENT_3D('',#586,#478,#479);
#391=AXIS2_PLACEMENT_3D('',#589,#482,#483);
#392=AXIS2_PLACEMENT_3D('',#591,#485,#486);
#393=AXIS2_PLACEMENT_3D('',#594,#489,#490);
#394=AXIS2_PLACEMENT_3D('',#595,#491,#492);
#395=AXIS2_PLACEMENT_3D('',#598,#495,#496);
#396=AXIS2_PLACEMENT_3D('',#599,#497,#498);
#397=AXIS2_PLACEMENT_3D('',#601,#500,#501);
#398=DIRECTION('axis',(0.,0.,1.));
#399=DIRECTION('refdir',(1.,0.,0.));
#400=DIRECTION('center_axis',(0.,1.,0.));
#401=DIRECTION('ref_axis',(1.,0.,0.));
#402=DIRECTION('center_axis',(0.,-1.,0.));
#403=DIRECTION('ref_axis',(-0.707106781186548,0.,-0.707106781186548));
#404=DIRECTION('',(1.,0.,0.));
#405=DIRECTION('center_axis',(0.,-1.,0.));
#406=DIRECTION('ref_axis',(0.707106781186544,0.,-0.707106781186551));
#407=DIRECTION('',(0.,0.,1.));
#408=DIRECTION('center_axis',(0.,-1.,0.));
#409=DIRECTION('ref_axis',(0.707106781186549,0.,0.707106781186546));
#410=DIRECTION('',(-1.,0.,0.));
#411=DIRECTION('center_axis',(0.,-1.,0.));
#412=DIRECTION('ref_axis',(-0.707106781186546,0.,0.707106781186549));
#413=DIRECTION('',(0.,0.,-1.));
#414=DIRECTION('center_axis',(0.,1.,0.));
#415=DIRECTION('ref_axis',(0.,0.,1.));
#416=DIRECTION('center_axis',(0.,1.,0.));
#417=DIRECTION('ref_axis',(-0.707106781186548,0.,0.707106781186547));
#418=DIRECTION('',(1.,0.,0.));
#419=DIRECTION('center_axis',(0.,1.,0.));
#420=DIRECTION('ref_axis',(0.707106781186548,0.,0.707106781186548));
#421=DIRECTION('',(0.,0.,-1.));
#422=DIRECTION('center_axis',(0.,1.,0.));
#423=DIRECTION('ref_axis',(0.707106781186548,0.,-0.707106781186548));
#424=DIRECTION('',(-1.,0.,0.));
#425=DIRECTION('center_axis',(0.,1.,0.));
#426=DIRECTION('ref_axis',(-0.707106781186548,0.,-0.707106781186548));
#427=DIRECTION('',(0.,0.,1.));
#428=DIRECTION('center_axis',(0.,-1.,0.));
#429=DIRECTION('ref_axis',(0.,0.,-1.));
#430=DIRECTION('center_axis',(0.,1.,0.));
#431=DIRECTION('ref_axis',(0.707106781186548,0.,-0.707106781186548));
#432=DIRECTION('',(0.,0.,1.));
#433=DIRECTION('center_axis',(0.,1.,0.));
#434=DIRECTION('ref_axis',(0.707106781186548,0.,0.707106781186548));
#435=DIRECTION('',(-1.,0.,0.));
#436=DIRECTION('center_axis',(0.,1.,0.));
#437=DIRECTION('ref_axis',(-0.707106781186548,0.,0.707106781186547));
#438=DIRECTION('',(0.,0.,-1.));
#439=DIRECTION('center_axis',(0.,1.,0.));
#440=DIRECTION('ref_axis',(-0.707106781186548,0.,-0.707106781186548));
#441=DIRECTION('',(1.,0.,0.));
#442=DIRECTION('',(0.,0.,1.));
#443=DIRECTION('center_axis',(0.,1.,0.));
#444=DIRECTION('ref_axis',(0.707106781186544,0.,-0.707106781186551));
#445=DIRECTION('',(1.,0.,0.));
#446=DIRECTION('center_axis',(0.,1.,0.));
#447=DIRECTION('ref_axis',(-0.707106781186548,0.,-0.707106781186548));
#448=DIRECTION('',(0.,0.,-1.));
#449=DIRECTION('center_axis',(0.,1.,0.));
#450=DIRECTION('ref_axis',(-0.707106781186546,0.,0.707106781186549));
#451=DIRECTION('',(-1.,0.,0.));
#452=DIRECTION('center_axis',(0.,1.,0.));
#453=DIRECTION('ref_axis',(0.707106781186549,0.,0.707106781186546));
#454=DIRECTION('center_axis',(-1.,0.,0.));
#455=DIRECTION('ref_axis',(0.,0.,-1.));
#456=DIRECTION('',(0.,1.,0.));
#457=DIRECTION('',(0.,-1.,0.));
#458=DIRECTION('center_axis',(0.,-1.,0.));
#459=DIRECTION('ref_axis',(-0.707106781186548,0.,-0.707106781186548));
#460=DIRECTION('',(0.,1.,0.));
#461=DIRECTION('center_axis',(0.,0.,1.));
#462=DIRECTION('ref_axis',(-1.,0.,0.));
#463=DIRECTION('',(0.,1.,0.));
#464=DIRECTION('',(0.,-1.,0.));
#465=DIRECTION('center_axis',(0.,-1.,0.));
#466=DIRECTION('ref_axis',(-0.707106781186548,0.,0.707106781186547));
#467=DIRECTION('center_axis',(1.,0.,0.));
#468=DIRECTION('ref_axis',(0.,0.,1.));
#469=DIRECTION('',(0.,1.,0.));
#470=DIRECTION('',(0.,-1.,0.));
#471=DIRECTION('center_axis',(0.,-1.,0.));
#472=DIRECTION('ref_axis',(0.707106781186548,0.,0.707106781186548));
#473=DIRECTION('center_axis',(0.,0.,-1.));
#474=DIRECTION('ref_axis',(1.,0.,0.));
#475=DIRECTION('',(0.,-1.,0.));
#476=DIRECTION('center_axis',(0.,-1.,0.));
#477=DIRECTION('ref_axis',(0.707106781186548,0.,-0.707106781186548));
#478=DIRECTION('center_axis',(0.,0.,-1.));
#479=DIRECTION('ref_axis',(1.,0.,0.));
#480=DIRECTION('',(0.,1.,0.));
#481=DIRECTION('',(0.,-1.,0.));
#482=DIRECTION('center_axis',(0.,-1.,0.));
#483=DIRECTION('ref_axis',(0.707106781186544,0.,-0.707106781186551));
#484=DIRECTION('',(0.,1.,0.));
#485=DIRECTION('center_axis',(-1.,0.,0.));
#486=DIRECTION('ref_axis',(0.,0.,-1.));
#487=DIRECTION('',(0.,1.,0.));
#488=DIRECTION('',(0.,-1.,0.));
#489=DIRECTION('center_axis',(0.,-1.,0.));
#490=DIRECTION('ref_axis',(-0.707106781186548,0.,-0.707106781186548));
#491=DIRECTION('center_axis',(0.,0.,1.));
#492=DIRECTION('ref_axis',(-1.,0.,0.));
#493=DIRECTION('',(0.,1.,0.));
#494=DIRECTION('',(0.,-1.,0.));
#495=DIRECTION('center_axis',(0.,-1.,0.));
#496=DIRECTION('ref_axis',(-0.707106781186546,0.,0.707106781186549));
#497=DIRECTION('center_axis',(1.,0.,0.));
#498=DIRECTION('ref_axis',(0.,0.,1.));
#499=DIRECTION('',(0.,-1.,0.));
#500=DIRECTION('center_axis',(0.,-1.,0.));
#501=DIRECTION('ref_axis',(0.707106781186549,0.,0.707106781186546));
#502=CARTESIAN_POINT('',(0.,0.,0.));
#503=CARTESIAN_POINT('Origin',(31.2237032521064,0.,-51.4382174187335));
#504=CARTESIAN_POINT('',(24.25,0.,-26.35));
#505=CARTESIAN_POINT('',(25.25,0.,-27.35));
#506=CARTESIAN_POINT('Origin',(25.25,0.,-26.35));
#507=CARTESIAN_POINT('',(37.25,0.,-27.35));
#508=CARTESIAN_POINT('',(27.7368516260532,0.,-27.35));
#509=CARTESIAN_POINT('',(38.25,0.,-26.35));
#510=CARTESIAN_POINT('Origin',(37.25,0.,-26.35));
#511=CARTESIAN_POINT('',(38.25,0.,-10.35));
#512=CARTESIAN_POINT('',(38.25,0.,-39.3941087093667));
#513=CARTESIAN_POINT('',(37.25,0.,-9.34999999999999));
#514=CARTESIAN_POINT('Origin',(37.25,0.,-10.35));
#515=CARTESIAN_POINT('',(25.25,0.,-9.34999999999999));
#516=CARTESIAN_POINT('',(34.7368516260532,0.,-9.34999999999999));
#517=CARTESIAN_POINT('',(24.25,0.,-10.35));
#518=CARTESIAN_POINT('Origin',(25.25,0.,-10.35));
#519=CARTESIAN_POINT('',(24.25,0.,-30.3941087093667));
#520=CARTESIAN_POINT('Origin',(31.2237032521064,2.,-51.4382174187335));
#521=CARTESIAN_POINT('',(22.25,2.,-9.34999999999999));
#522=CARTESIAN_POINT('',(24.25,2.,-7.34999999999999));
#523=CARTESIAN_POINT('Origin',(24.25,2.,-9.34999999999999));
#524=CARTESIAN_POINT('',(38.25,2.,-7.34999999999999));
#525=CARTESIAN_POINT('',(35.7368516260532,2.,-7.34999999999999));
#526=CARTESIAN_POINT('',(40.25,2.,-9.34999999999999));
#527=CARTESIAN_POINT('Origin',(38.25,2.,-9.34999999999999));
#528=CARTESIAN_POINT('',(40.25,2.,-27.35));
#529=CARTESIAN_POINT('',(40.25,2.,-40.3941087093667));
#530=CARTESIAN_POINT('',(38.25,2.,-29.35));
#531=CARTESIAN_POINT('Origin',(38.25,2.,-27.35));
#532=CARTESIAN_POINT('',(24.25,2.,-29.35));
#533=CARTESIAN_POINT('',(26.7368516260532,2.,-29.35));
#534=CARTESIAN_POINT('',(22.25,2.,-27.35));
#535=CARTESIAN_POINT('Origin',(24.25,2.,-27.35));
#536=CARTESIAN_POINT('',(22.25,2.,-29.3941087093667));
#537=CARTESIAN_POINT('Origin',(31.25,0.5,-18.35));
#538=CARTESIAN_POINT('',(40.25,0.5,-27.35));
#539=CARTESIAN_POINT('',(38.25,0.5,-29.35));
#540=CARTESIAN_POINT('Origin',(38.25,0.5,-27.35));
#541=CARTESIAN_POINT('',(40.25,0.5,-9.34999999999999));
#542=CARTESIAN_POINT('',(40.25,0.5,-7.34999999999999));
#543=CARTESIAN_POINT('',(38.25,0.5,-7.34999999999999));
#544=CARTESIAN_POINT('Origin',(38.25,0.5,-9.34999999999999));
#545=CARTESIAN_POINT('',(24.25,0.5,-7.34999999999999));
#546=CARTESIAN_POINT('',(22.25,0.5,-7.34999999999999));
#547=CARTESIAN_POINT('',(22.25,0.5,-9.34999999999999));
#548=CARTESIAN_POINT('Origin',(24.25,0.5,-9.34999999999999));
#549=CARTESIAN_POINT('',(22.25,0.5,-27.35));
#550=CARTESIAN_POINT('',(22.25,0.5,-29.35));
#551=CARTESIAN_POINT('',(24.25,0.5,-29.35));
#552=CARTESIAN_POINT('Origin',(24.25,0.5,-27.35));
#553=CARTESIAN_POINT('',(40.25,0.5,-29.35));
#554=CARTESIAN_POINT('',(38.25,0.5,-26.35));
#555=CARTESIAN_POINT('',(38.25,0.5,-10.35));
#556=CARTESIAN_POINT('',(38.25,0.5,-22.85));
#557=CARTESIAN_POINT('',(37.25,0.5,-27.35));
#558=CARTESIAN_POINT('Origin',(37.25,0.5,-26.35));
#559=CARTESIAN_POINT('',(25.25,0.5,-27.35));
#560=CARTESIAN_POINT('',(27.75,0.5,-27.35));
#561=CARTESIAN_POINT('',(24.25,0.5,-26.35));
#562=CARTESIAN_POINT('Origin',(25.25,0.5,-26.35));
#563=CARTESIAN_POINT('',(24.25,0.5,-10.35));
#564=CARTESIAN_POINT('',(24.25,0.5,-13.85));
#565=CARTESIAN_POINT('',(25.25,0.5,-9.34999999999999));
#566=CARTESIAN_POINT('Origin',(25.25,0.5,-10.35));
#567=CARTESIAN_POINT('',(37.25,0.5,-9.34999999999999));
#568=CARTESIAN_POINT('',(34.75,0.5,-9.34999999999999));
#569=CARTESIAN_POINT('Origin',(37.25,0.5,-10.35));
#570=CARTESIAN_POINT('Origin',(22.25,2.,-7.34999999999999));
#571=CARTESIAN_POINT('',(22.25,2.,-9.34999999999999));
#572=CARTESIAN_POINT('',(22.25,2.,-27.35));
#573=CARTESIAN_POINT('Origin',(24.25,2.,-27.35));
#574=CARTESIAN_POINT('',(24.25,2.,-29.35));
#575=CARTESIAN_POINT('Origin',(40.25,2.,-7.34999999999999));
#576=CARTESIAN_POINT('',(38.25,2.,-7.34999999999999));
#577=CARTESIAN_POINT('',(24.25,2.,-7.34999999999999));
#578=CARTESIAN_POINT('Origin',(24.25,2.,-9.34999999999999));
#579=CARTESIAN_POINT('Origin',(40.25,2.,-29.35));
#580=CARTESIAN_POINT('',(40.25,2.,-27.35));
#581=CARTESIAN_POINT('',(40.25,2.,-9.34999999999999));
#582=CARTESIAN_POINT('Origin',(38.25,2.,-9.34999999999999));
#583=CARTESIAN_POINT('Origin',(22.25,2.,-29.35));
#584=CARTESIAN_POINT('',(38.25,2.,-29.35));
#585=CARTESIAN_POINT('Origin',(38.25,2.,-27.35));
#586=CARTESIAN_POINT('Origin',(24.25,0.5,-27.35));
#587=CARTESIAN_POINT('',(25.25,0.5,-27.35));
#588=CARTESIAN_POINT('',(37.25,0.5,-27.35));
#589=CARTESIAN_POINT('Origin',(37.25,0.5,-26.35));
#590=CARTESIAN_POINT('',(38.25,0.5,-26.35));
#591=CARTESIAN_POINT('Origin',(24.25,0.5,-9.34999999999999));
#592=CARTESIAN_POINT('',(24.25,0.5,-10.35));
#593=CARTESIAN_POINT('',(24.25,0.5,-26.35));
#594=CARTESIAN_POINT('Origin',(25.25,0.5,-26.35));
#595=CARTESIAN_POINT('Origin',(38.25,0.5,-9.34999999999999));
#596=CARTESIAN_POINT('',(37.25,0.5,-9.34999999999999));
#597=CARTESIAN_POINT('',(25.25,0.5,-9.34999999999999));
#598=CARTESIAN_POINT('Origin',(25.25,0.5,-10.35));
#599=CARTESIAN_POINT('Origin',(38.25,0.5,-27.35));
#600=CARTESIAN_POINT('',(38.25,0.5,-10.35));
#601=CARTESIAN_POINT('Origin',(37.25,0.5,-10.35));
#602=UNCERTAINTY_MEASURE_WITH_UNIT(LENGTH_MEASURE(0.01),#606,
'DISTANCE_ACCURACY_VALUE',
'Maximum model space distance between geometric entities at asserted c
onnectivities');
#603=UNCERTAINTY_MEASURE_WITH_UNIT(LENGTH_MEASURE(0.01),#606,
'DISTANCE_ACCURACY_VALUE',
'Maximum model space distance between geometric entities at asserted c
onnectivities');
#604=(
GEOMETRIC_REPRESENTATION_CONTEXT(3)
GLOBAL_UNCERTAINTY_ASSIGNED_CONTEXT((#602))
GLOBAL_UNIT_ASSIGNED_CONTEXT((#606,#608,#609))
REPRESENTATION_CONTEXT('','3D')
);
#605=(
GEOMETRIC_REPRESENTATION_CONTEXT(3)
GLOBAL_UNCERTAINTY_ASSIGNED_CONTEXT((#603))
GLOBAL_UNIT_ASSIGNED_CONTEXT((#606,#608,#609))
REPRESENTATION_CONTEXT('','3D')
);
#606=(
LENGTH_UNIT()
NAMED_UNIT(*)
SI_UNIT(.MILLI.,.METRE.)
);
#607=(
LENGTH_UNIT()
NAMED_UNIT(*)
SI_UNIT($,.METRE.)
);
#608=(
NAMED_UNIT(*)
PLANE_ANGLE_UNIT()
SI_UNIT($,.RADIAN.)
);
#609=(
NAMED_UNIT(*)
SI_UNIT($,.STERADIAN.)
SOLID_ANGLE_UNIT()
);
#610=SHAPE_DEFINITION_REPRESENTATION(#611,#612);
#611=PRODUCT_DEFINITION_SHAPE('',$,#614);
#612=SHAPE_REPRESENTATION('',(#362),#604);
#613=PRODUCT_DEFINITION_CONTEXT('part definition',#618,'design');
#614=PRODUCT_DEFINITION('Chassis MRT Beluga hybrid',
'Chassis MRT Beluga hybrid v6',#615,#613);
#615=PRODUCT_DEFINITION_FORMATION('',$,#620);
#616=PRODUCT_RELATED_PRODUCT_CATEGORY('Chassis MRT Beluga hybrid v6',
'Chassis MRT Beluga hybrid v6',(#620));
#617=APPLICATION_PROTOCOL_DEFINITION('international standard',
'automotive_design',2009,#618);
#618=APPLICATION_CONTEXT(
'Core Data for Automotive Mechanical Design Process');
#619=PRODUCT_CONTEXT('part definition',#618,'mechanical');
#620=PRODUCT('Chassis MRT Beluga hybrid','Chassis MRT Beluga hybrid v6',
$,(#619));
#621=PRESENTATION_STYLE_ASSIGNMENT((#625));
#622=PRESENTATION_STYLE_ASSIGNMENT((#626));
#623=PRESENTATION_STYLE_ASSIGNMENT((#627));
#624=PRESENTATION_STYLE_ASSIGNMENT((#628));
#625=SURFACE_STYLE_USAGE(.BOTH.,#629);
#626=SURFACE_STYLE_USAGE(.BOTH.,#630);
#627=SURFACE_STYLE_USAGE(.BOTH.,#631);
#628=SURFACE_STYLE_USAGE(.BOTH.,#632);
#629=SURFACE_SIDE_STYLE('',(#633));
#630=SURFACE_SIDE_STYLE('',(#634));
#631=SURFACE_SIDE_STYLE('',(#635));
#632=SURFACE_SIDE_STYLE('',(#636));
#633=SURFACE_STYLE_FILL_AREA(#637);
#634=SURFACE_STYLE_FILL_AREA(#638);
#635=SURFACE_STYLE_FILL_AREA(#639);
#636=SURFACE_STYLE_FILL_AREA(#640);
#637=FILL_AREA_STYLE('Acier - Satin\X\E9',(#641));
#638=FILL_AREA_STYLE('Fibre de carbone - Crois\X\E9e',(#642));
#639=FILL_AREA_STYLE('ABS (blanc)',(#643));
#640=FILL_AREA_STYLE('Laiton - Poli',(#644));
#641=FILL_AREA_STYLE_COLOUR('Acier - Satin\X\E9',#645);
#642=FILL_AREA_STYLE_COLOUR('Fibre de carbone - Crois\X\E9e',#646);
#643=FILL_AREA_STYLE_COLOUR('ABS (blanc)',#647);
#644=FILL_AREA_STYLE_COLOUR('Laiton - Poli',#648);
#645=COLOUR_RGB('Acier - Satin\X\E9',0.627450980392157,0.627450980392157,
0.627450980392157);
#646=COLOUR_RGB('Fibre de carbone - Crois\X\E9e',0.0980392156862745,0.0980392156862745,
0.0980392156862745);
#647=COLOUR_RGB('ABS (blanc)',0.964705882352941,0.964705882352941,0.952941176470588);
#648=COLOUR_RGB('Laiton - Poli',0.952941176470588,0.796078431372549,0.486274509803922);
ENDSEC;
END-ISO-10303-21;
