ISO-10303-21;
HEADER;
/* Generated by software containing ST-Developer
 * from STEP Tools, Inc. (www.steptools.com) 
 */
/* OPTION: using custom schema-name function */

FILE_DESCRIPTION(
/* description */ (''),
/* implementation_level */ '2;1');

FILE_NAME(
/* name */ 'AXE SUP.stp',
/* time_stamp */ '2024-04-26T16:05:29+02:00',
/* author */ (''),
/* organization */ (''),
/* preprocessor_version */ 'ST-DEVELOPER v19.4',
/* originating_system */ 'SIEMENS PLM Software NX2212.8702',
/* authorisation */ '');

FILE_SCHEMA (('AUTOMOTIVE_DESIGN { 1 0 10303 214 3 1 1 1 }'));
ENDSEC;

DATA;
#10=SHAPE_REPRESENTATION_RELATIONSHIP('None',
'relationship between AXE SUP-None and AXE SUP-None',#22,#11);
#11=ADVANCED_BREP_SHAPE_REPRESENTATION('AXE SUP-None',(#32),#205);
#12=SHAPE_DEFINITION_REPRESENTATION(#13,#22);
#13=PRODUCT_DEFINITION_SHAPE('','',#14);
#14=PRODUCT_DEFINITION(' ','',#16,#15);
#15=PRODUCT_DEFINITION_CONTEXT('part definition',#21,'design');
#16=PRODUCT_DEFINITION_FORMATION_WITH_SPECIFIED_SOURCE(' ',' ',#18,
 .NOT_KNOWN.);
#17=PRODUCT_RELATED_PRODUCT_CATEGORY('part','',(#18));
#18=PRODUCT('AXE SUP','AXE SUP',' ',(#19));
#19=PRODUCT_CONTEXT(' ',#21,'mechanical');
#20=APPLICATION_PROTOCOL_DEFINITION('international standard',
'automotive_design',2010,#21);
#21=APPLICATION_CONTEXT(
'core data for automotive mechanical design processes');
#22=SHAPE_REPRESENTATION('AXE SUP-None',(#124),#205);
#23=PRESENTATION_LAYER_ASSIGNMENT('1','Layer 1',(#32));
#24=STYLED_ITEM('',(#25),#32);
#25=PRESENTATION_STYLE_ASSIGNMENT((#26));
#26=SURFACE_STYLE_USAGE(.BOTH.,#27);
#27=SURFACE_SIDE_STYLE('',(#28));
#28=SURFACE_STYLE_FILL_AREA(#29);
#29=FILL_AREA_STYLE('',(#30));
#30=FILL_AREA_STYLE_COLOUR('',#31);
#31=COLOUR_RGB('medium steel',0.596078431372549,0.666666666666667,0.686274509803922);
#32=MANIFOLD_SOLID_BREP('',#33);
#33=CLOSED_SHELL('',(#53,#54,#55,#56,#57,#58,#59,#60,#61));
#34=CONICAL_SURFACE('',#140,17.5,30.);
#35=CONICAL_SURFACE('',#141,5.00000000000002,30.);
#36=CYLINDRICAL_SURFACE('',#129,5.00000000000002);
#37=CYLINDRICAL_SURFACE('',#133,20.);
#38=CYLINDRICAL_SURFACE('',#138,17.5);
#39=FACE_BOUND('',#69,.T.);
#40=FACE_BOUND('',#70,.T.);
#41=FACE_BOUND('',#71,.T.);
#42=FACE_BOUND('',#72,.T.);
#43=FACE_BOUND('',#73,.T.);
#44=FACE_BOUND('',#74,.T.);
#45=FACE_BOUND('',#75,.T.);
#46=FACE_BOUND('',#76,.T.);
#47=FACE_BOUND('',#77,.T.);
#48=FACE_BOUND('',#78,.T.);
#49=FACE_BOUND('',#80,.T.);
#50=FACE_BOUND('',#81,.T.);
#51=FACE_BOUND('',#82,.T.);
#52=FACE_BOUND('',#83,.T.);
#53=ADVANCED_FACE('',(#66),#62,.T.);
#54=ADVANCED_FACE('',(#39,#40),#36,.T.);
#55=ADVANCED_FACE('',(#41,#42),#63,.T.);
#56=ADVANCED_FACE('',(#43,#44),#37,.T.);
#57=ADVANCED_FACE('',(#45,#46),#64,.T.);
#58=ADVANCED_FACE('',(#47,#48),#38,.F.);
#59=ADVANCED_FACE('',(#67),#65,.T.);
#60=ADVANCED_FACE('',(#49,#50),#34,.F.);
#61=ADVANCED_FACE('',(#51,#52),#35,.T.);
#62=PLANE('',#126);
#63=PLANE('',#131);
#64=PLANE('',#135);
#65=PLANE('',#139);
#66=FACE_OUTER_BOUND('',#68,.T.);
#67=FACE_OUTER_BOUND('',#79,.T.);
#68=EDGE_LOOP('',(#84));
#69=EDGE_LOOP('',(#85));
#70=EDGE_LOOP('',(#86));
#71=EDGE_LOOP('',(#87));
#72=EDGE_LOOP('',(#88));
#73=EDGE_LOOP('',(#89));
#74=EDGE_LOOP('',(#90));
#75=EDGE_LOOP('',(#91));
#76=EDGE_LOOP('',(#92));
#77=EDGE_LOOP('',(#93));
#78=EDGE_LOOP('',(#94));
#79=EDGE_LOOP('',(#95));
#80=EDGE_LOOP('',(#96));
#81=EDGE_LOOP('',(#97));
#82=EDGE_LOOP('',(#98));
#83=EDGE_LOOP('',(#99));
#84=ORIENTED_EDGE('',*,*,#108,.T.);
#85=ORIENTED_EDGE('',*,*,#109,.T.);
#86=ORIENTED_EDGE('',*,*,#110,.F.);
#87=ORIENTED_EDGE('',*,*,#110,.T.);
#88=ORIENTED_EDGE('',*,*,#111,.F.);
#89=ORIENTED_EDGE('',*,*,#111,.T.);
#90=ORIENTED_EDGE('',*,*,#112,.F.);
#91=ORIENTED_EDGE('',*,*,#113,.T.);
#92=ORIENTED_EDGE('',*,*,#112,.T.);
#93=ORIENTED_EDGE('',*,*,#114,.T.);
#94=ORIENTED_EDGE('',*,*,#115,.F.);
#95=ORIENTED_EDGE('',*,*,#115,.T.);
#96=ORIENTED_EDGE('',*,*,#113,.F.);
#97=ORIENTED_EDGE('',*,*,#114,.F.);
#98=ORIENTED_EDGE('',*,*,#108,.F.);
#99=ORIENTED_EDGE('',*,*,#109,.F.);
#100=VERTEX_POINT('',#180);
#101=VERTEX_POINT('',#183);
#102=VERTEX_POINT('',#185);
#103=VERTEX_POINT('',#188);
#104=VERTEX_POINT('',#191);
#105=VERTEX_POINT('',#194);
#106=VERTEX_POINT('',#197);
#107=VERTEX_POINT('',#199);
#108=EDGE_CURVE('',#100,#100,#116,.T.);
#109=EDGE_CURVE('',#101,#101,#117,.T.);
#110=EDGE_CURVE('',#102,#102,#118,.T.);
#111=EDGE_CURVE('',#103,#103,#119,.T.);
#112=EDGE_CURVE('',#104,#104,#120,.T.);
#113=EDGE_CURVE('',#105,#105,#121,.T.);
#114=EDGE_CURVE('',#106,#106,#122,.T.);
#115=EDGE_CURVE('',#107,#107,#123,.T.);
#116=CIRCLE('',#125,4.42264973081039);
#117=CIRCLE('',#127,5.00000000000002);
#118=CIRCLE('',#128,5.);
#119=CIRCLE('',#130,20.);
#120=CIRCLE('',#132,20.);
#121=CIRCLE('',#134,18.0773502691896);
#122=CIRCLE('',#136,17.5);
#123=CIRCLE('',#137,17.5);
#124=AXIS2_PLACEMENT_3D('',#178,#142,#143);
#125=AXIS2_PLACEMENT_3D('',#179,#144,#145);
#126=AXIS2_PLACEMENT_3D('',#181,#146,#147);
#127=AXIS2_PLACEMENT_3D('',#182,#148,#149);
#128=AXIS2_PLACEMENT_3D('',#184,#150,#151);
#129=AXIS2_PLACEMENT_3D('',#186,#152,#153);
#130=AXIS2_PLACEMENT_3D('',#187,#154,#155);
#131=AXIS2_PLACEMENT_3D('',#189,#156,#157);
#132=AXIS2_PLACEMENT_3D('',#190,#158,#159);
#133=AXIS2_PLACEMENT_3D('',#192,#160,#161);
#134=AXIS2_PLACEMENT_3D('',#193,#162,#163);
#135=AXIS2_PLACEMENT_3D('',#195,#164,#165);
#136=AXIS2_PLACEMENT_3D('',#196,#166,#167);
#137=AXIS2_PLACEMENT_3D('',#198,#168,#169);
#138=AXIS2_PLACEMENT_3D('',#200,#170,#171);
#139=AXIS2_PLACEMENT_3D('',#201,#172,#173);
#140=AXIS2_PLACEMENT_3D('',#202,#174,#175);
#141=AXIS2_PLACEMENT_3D('',#203,#176,#177);
#142=DIRECTION('',(0.,0.,1.));
#143=DIRECTION('',(1.,0.,0.));
#144=DIRECTION('',(0.,0.,1.));
#145=DIRECTION('',(1.,0.,0.));
#146=DIRECTION('',(0.,0.,1.));
#147=DIRECTION('',(1.,0.,0.));
#148=DIRECTION('',(0.,0.,-1.));
#149=DIRECTION('',(1.,0.,0.));
#150=DIRECTION('',(0.,0.,-1.));
#151=DIRECTION('',(-1.,0.,0.));
#152=DIRECTION('',(0.,0.,-1.));
#153=DIRECTION('',(-1.,0.,0.));
#154=DIRECTION('',(0.,0.,-1.));
#155=DIRECTION('',(-1.,0.,0.));
#156=DIRECTION('',(0.,0.,1.));
#157=DIRECTION('',(1.,0.,0.));
#158=DIRECTION('',(0.,0.,-1.));
#159=DIRECTION('',(-1.,0.,0.));
#160=DIRECTION('',(0.,0.,-1.));
#161=DIRECTION('',(-1.,0.,0.));
#162=DIRECTION('',(0.,0.,1.));
#163=DIRECTION('',(-1.,0.,0.));
#164=DIRECTION('',(0.,0.,-1.));
#165=DIRECTION('',(-1.,0.,0.));
#166=DIRECTION('',(0.,0.,-1.));
#167=DIRECTION('',(-1.,0.,0.));
#168=DIRECTION('',(0.,0.,-1.));
#169=DIRECTION('',(-1.,0.,0.));
#170=DIRECTION('',(0.,0.,-1.));
#171=DIRECTION('',(-1.,0.,0.));
#172=DIRECTION('',(0.,0.,-1.));
#173=DIRECTION('',(-1.,0.,0.));
#174=DIRECTION('',(0.,0.,-1.));
#175=DIRECTION('',(-1.,0.,0.));
#176=DIRECTION('',(0.,0.,-1.));
#177=DIRECTION('',(-1.,0.,2.3830654061732E-17));
#178=CARTESIAN_POINT('',(0.,0.,0.));
#179=CARTESIAN_POINT('',(0.,0.,38.));
#180=CARTESIAN_POINT('',(4.42264973081039,0.,38.));
#181=CARTESIAN_POINT('',(0.,5.00000000000003,38.));
#182=CARTESIAN_POINT('',(0.,0.,37.));
#183=CARTESIAN_POINT('',(5.00000000000002,0.,37.));
#184=CARTESIAN_POINT('',(0.,0.,18.));
#185=CARTESIAN_POINT('',(-5.,0.,18.));
#186=CARTESIAN_POINT('',(0.,0.,0.));
#187=CARTESIAN_POINT('',(0.,0.,18.));
#188=CARTESIAN_POINT('',(-20.,0.,18.));
#189=CARTESIAN_POINT('',(0.,20.,18.));
#190=CARTESIAN_POINT('',(0.,0.,0.));
#191=CARTESIAN_POINT('',(-20.,0.,0.));
#192=CARTESIAN_POINT('',(0.,0.,0.));
#193=CARTESIAN_POINT('',(0.,0.,0.));
#194=CARTESIAN_POINT('',(-18.0773502691896,0.,0.));
#195=CARTESIAN_POINT('',(0.,17.5,0.));
#196=CARTESIAN_POINT('',(0.,0.,1.));
#197=CARTESIAN_POINT('',(-17.5,0.,1.));
#198=CARTESIAN_POINT('',(0.,0.,15.));
#199=CARTESIAN_POINT('',(-17.5,0.,15.));
#200=CARTESIAN_POINT('',(0.,0.,0.));
#201=CARTESIAN_POINT('',(0.,0.,15.));
#202=CARTESIAN_POINT('',(0.,0.,1.));
#203=CARTESIAN_POINT('',(0.,0.,37.));
#204=MECHANICAL_DESIGN_GEOMETRIC_PRESENTATION_REPRESENTATION('',(#24),#205);
#205=(
GEOMETRIC_REPRESENTATION_CONTEXT(3)
GLOBAL_UNCERTAINTY_ASSIGNED_CONTEXT((#206))
GLOBAL_UNIT_ASSIGNED_CONTEXT((#212,#208,#207))
REPRESENTATION_CONTEXT('AXE SUP','TOP_LEVEL_ASSEMBLY_PART')
);
#206=UNCERTAINTY_MEASURE_WITH_UNIT(LENGTH_MEASURE(2.E-5),#212,
'DISTANCE_ACCURACY_VALUE','Maximum Tolerance applied to model');
#207=(
NAMED_UNIT(*)
SI_UNIT($,.STERADIAN.)
SOLID_ANGLE_UNIT()
);
#208=(
CONVERSION_BASED_UNIT('DEGREE',#210)
NAMED_UNIT(#209)
PLANE_ANGLE_UNIT()
);
#209=DIMENSIONAL_EXPONENTS(0.,0.,0.,0.,0.,0.,0.);
#210=PLANE_ANGLE_MEASURE_WITH_UNIT(PLANE_ANGLE_MEASURE(0.0174532925),#211);
#211=(
NAMED_UNIT(*)
PLANE_ANGLE_UNIT()
SI_UNIT($,.RADIAN.)
);
#212=(
LENGTH_UNIT()
NAMED_UNIT(*)
SI_UNIT(.MILLI.,.METRE.)
);
ENDSEC;
END-ISO-10303-21;
