ISO-10303-21;
HEADER;
/* Generated by software containing ST-Developer
 * from STEP Tools, Inc. (www.steptools.com) 
 */

FILE_DESCRIPTION(
/* description */ (''),
/* implementation_level */ '2;1');

FILE_NAME(
/* name */ 
'F:\\INVENTOR\\Attache M\X\E9calac\\Adaptation plaque vibrante\\STEP e
t dessins\\Flasque arri\X\E8re cones femelles frais\X\E9s.stp',
/* time_stamp */ '2024-04-17T19:10:02+02:00',
/* author */ ('Antoine'),
/* organization */ (''),
/* preprocessor_version */ 'ST-DEVELOPER v18.1',
/* originating_system */ 'Autodesk Inventor 2021',
/* authorisation */ '');

FILE_SCHEMA (('AUTOMOTIVE_DESIGN { 1 0 10303 214 3 1 1 }'));
ENDSEC;

DATA;
#10=MECHANICAL_DESIGN_GEOMETRIC_PRESENTATION_REPRESENTATION('',(#210,#211,
#212,#213,#214,#215,#216,#217,#218,#219,#220,#221,#222),#409);
#11=SHAPE_REPRESENTATION_RELATIONSHIP('SRR','None',#416,#12);
#12=ADVANCED_BREP_SHAPE_REPRESENTATION('',(#13),#408);
#13=MANIFOLD_SOLID_BREP('Solide3',#235);
#14=FACE_BOUND('',#42,.T.);
#15=FACE_BOUND('',#46,.T.);
#16=FACE_BOUND('',#53,.T.);
#17=FACE_BOUND('',#54,.T.);
#18=FACE_BOUND('',#56,.T.);
#19=FACE_BOUND('',#57,.T.);
#20=PLANE('',#259);
#21=PLANE('',#268);
#22=PLANE('',#273);
#23=PLANE('',#274);
#24=PLANE('',#275);
#25=PLANE('',#276);
#26=PLANE('',#277);
#27=PLANE('',#278);
#28=FACE_OUTER_BOUND('',#40,.T.);
#29=FACE_OUTER_BOUND('',#41,.T.);
#30=FACE_OUTER_BOUND('',#43,.T.);
#31=FACE_OUTER_BOUND('',#44,.T.);
#32=FACE_OUTER_BOUND('',#45,.T.);
#33=FACE_OUTER_BOUND('',#47,.T.);
#34=FACE_OUTER_BOUND('',#48,.T.);
#35=FACE_OUTER_BOUND('',#49,.T.);
#36=FACE_OUTER_BOUND('',#50,.T.);
#37=FACE_OUTER_BOUND('',#51,.T.);
#38=FACE_OUTER_BOUND('',#52,.T.);
#39=FACE_OUTER_BOUND('',#55,.T.);
#40=EDGE_LOOP('',(#150,#151,#152,#153,#154));
#41=EDGE_LOOP('',(#155));
#42=EDGE_LOOP('',(#156,#157));
#43=EDGE_LOOP('',(#158,#159,#160,#161,#162));
#44=EDGE_LOOP('',(#163,#164,#165,#166,#167));
#45=EDGE_LOOP('',(#168));
#46=EDGE_LOOP('',(#169,#170));
#47=EDGE_LOOP('',(#171,#172,#173,#174,#175));
#48=EDGE_LOOP('',(#176,#177,#178,#179));
#49=EDGE_LOOP('',(#180,#181,#182,#183));
#50=EDGE_LOOP('',(#184,#185,#186,#187));
#51=EDGE_LOOP('',(#188,#189,#190,#191));
#52=EDGE_LOOP('',(#192,#193,#194,#195));
#53=EDGE_LOOP('',(#196));
#54=EDGE_LOOP('',(#197));
#55=EDGE_LOOP('',(#198,#199,#200,#201));
#56=EDGE_LOOP('',(#202,#203));
#57=EDGE_LOOP('',(#204,#205));
#58=LINE('',#352,#74);
#59=LINE('',#361,#75);
#60=LINE('',#369,#76);
#61=LINE('',#378,#77);
#62=LINE('',#383,#78);
#63=LINE('',#385,#79);
#64=LINE('',#387,#80);
#65=LINE('',#388,#81);
#66=LINE('',#391,#82);
#67=LINE('',#393,#83);
#68=LINE('',#394,#84);
#69=LINE('',#397,#85);
#70=LINE('',#399,#86);
#71=LINE('',#400,#87);
#72=LINE('',#402,#88);
#73=LINE('',#403,#89);
#74=VECTOR('',#287,34.2656283751672);
#75=VECTOR('',#298,25.2252977659123);
#76=VECTOR('',#307,34.2656283751672);
#77=VECTOR('',#318,25.2252977659123);
#78=VECTOR('',#323,10.);
#79=VECTOR('',#324,10.);
#80=VECTOR('',#325,10.);
#81=VECTOR('',#326,10.);
#82=VECTOR('',#329,10.);
#83=VECTOR('',#330,10.);
#84=VECTOR('',#331,10.);
#85=VECTOR('',#334,10.);
#86=VECTOR('',#335,10.);
#87=VECTOR('',#336,10.);
#88=VECTOR('',#339,10.);
#89=VECTOR('',#340,10.);
#90=CIRCLE('',#256,34.2656283751672);
#91=CIRCLE('',#257,34.2656283751672);
#92=CIRCLE('',#258,25.229935001684);
#93=CIRCLE('',#260,25.2252977659123);
#94=CIRCLE('',#261,25.2252977659123);
#95=CIRCLE('',#263,15.6510764845369);
#96=CIRCLE('',#265,34.2656283751672);
#97=CIRCLE('',#266,34.2656283751672);
#98=CIRCLE('',#267,25.229935001684);
#99=CIRCLE('',#269,25.2252977659123);
#100=CIRCLE('',#270,25.2252977659123);
#101=CIRCLE('',#272,15.6510764845369);
#102=VERTEX_POINT('',#347);
#103=VERTEX_POINT('',#348);
#104=VERTEX_POINT('',#351);
#105=VERTEX_POINT('',#355);
#106=VERTEX_POINT('',#356);
#107=VERTEX_POINT('',#360);
#108=VERTEX_POINT('',#364);
#109=VERTEX_POINT('',#365);
#110=VERTEX_POINT('',#368);
#111=VERTEX_POINT('',#372);
#112=VERTEX_POINT('',#373);
#113=VERTEX_POINT('',#377);
#114=VERTEX_POINT('',#381);
#115=VERTEX_POINT('',#382);
#116=VERTEX_POINT('',#384);
#117=VERTEX_POINT('',#386);
#118=VERTEX_POINT('',#390);
#119=VERTEX_POINT('',#392);
#120=VERTEX_POINT('',#396);
#121=VERTEX_POINT('',#398);
#122=EDGE_CURVE('',#102,#103,#90,.T.);
#123=EDGE_CURVE('',#103,#102,#91,.T.);
#124=EDGE_CURVE('',#103,#104,#58,.T.);
#125=EDGE_CURVE('',#104,#104,#92,.T.);
#126=EDGE_CURVE('',#105,#106,#93,.T.);
#127=EDGE_CURVE('',#106,#105,#94,.T.);
#128=EDGE_CURVE('',#106,#107,#59,.T.);
#129=EDGE_CURVE('',#107,#107,#95,.T.);
#130=EDGE_CURVE('',#108,#109,#96,.T.);
#131=EDGE_CURVE('',#109,#108,#97,.T.);
#132=EDGE_CURVE('',#109,#110,#60,.T.);
#133=EDGE_CURVE('',#110,#110,#98,.T.);
#134=EDGE_CURVE('',#111,#112,#99,.T.);
#135=EDGE_CURVE('',#112,#111,#100,.T.);
#136=EDGE_CURVE('',#112,#113,#61,.T.);
#137=EDGE_CURVE('',#113,#113,#101,.T.);
#138=EDGE_CURVE('',#114,#115,#62,.T.);
#139=EDGE_CURVE('',#115,#116,#63,.T.);
#140=EDGE_CURVE('',#117,#116,#64,.T.);
#141=EDGE_CURVE('',#114,#117,#65,.T.);
#142=EDGE_CURVE('',#118,#114,#66,.T.);
#143=EDGE_CURVE('',#119,#117,#67,.T.);
#144=EDGE_CURVE('',#118,#119,#68,.T.);
#145=EDGE_CURVE('',#120,#118,#69,.T.);
#146=EDGE_CURVE('',#121,#119,#70,.T.);
#147=EDGE_CURVE('',#120,#121,#71,.T.);
#148=EDGE_CURVE('',#115,#120,#72,.T.);
#149=EDGE_CURVE('',#116,#121,#73,.T.);
#150=ORIENTED_EDGE('',*,*,#122,.F.);
#151=ORIENTED_EDGE('',*,*,#123,.F.);
#152=ORIENTED_EDGE('',*,*,#124,.T.);
#153=ORIENTED_EDGE('',*,*,#125,.T.);
#154=ORIENTED_EDGE('',*,*,#124,.F.);
#155=ORIENTED_EDGE('',*,*,#125,.F.);
#156=ORIENTED_EDGE('',*,*,#126,.F.);
#157=ORIENTED_EDGE('',*,*,#127,.F.);
#158=ORIENTED_EDGE('',*,*,#126,.T.);
#159=ORIENTED_EDGE('',*,*,#128,.T.);
#160=ORIENTED_EDGE('',*,*,#129,.F.);
#161=ORIENTED_EDGE('',*,*,#128,.F.);
#162=ORIENTED_EDGE('',*,*,#127,.T.);
#163=ORIENTED_EDGE('',*,*,#130,.F.);
#164=ORIENTED_EDGE('',*,*,#131,.F.);
#165=ORIENTED_EDGE('',*,*,#132,.T.);
#166=ORIENTED_EDGE('',*,*,#133,.T.);
#167=ORIENTED_EDGE('',*,*,#132,.F.);
#168=ORIENTED_EDGE('',*,*,#133,.F.);
#169=ORIENTED_EDGE('',*,*,#134,.F.);
#170=ORIENTED_EDGE('',*,*,#135,.F.);
#171=ORIENTED_EDGE('',*,*,#134,.T.);
#172=ORIENTED_EDGE('',*,*,#136,.T.);
#173=ORIENTED_EDGE('',*,*,#137,.F.);
#174=ORIENTED_EDGE('',*,*,#136,.F.);
#175=ORIENTED_EDGE('',*,*,#135,.T.);
#176=ORIENTED_EDGE('',*,*,#138,.T.);
#177=ORIENTED_EDGE('',*,*,#139,.T.);
#178=ORIENTED_EDGE('',*,*,#140,.F.);
#179=ORIENTED_EDGE('',*,*,#141,.F.);
#180=ORIENTED_EDGE('',*,*,#142,.T.);
#181=ORIENTED_EDGE('',*,*,#141,.T.);
#182=ORIENTED_EDGE('',*,*,#143,.F.);
#183=ORIENTED_EDGE('',*,*,#144,.F.);
#184=ORIENTED_EDGE('',*,*,#145,.T.);
#185=ORIENTED_EDGE('',*,*,#144,.T.);
#186=ORIENTED_EDGE('',*,*,#146,.F.);
#187=ORIENTED_EDGE('',*,*,#147,.F.);
#188=ORIENTED_EDGE('',*,*,#148,.T.);
#189=ORIENTED_EDGE('',*,*,#147,.T.);
#190=ORIENTED_EDGE('',*,*,#149,.F.);
#191=ORIENTED_EDGE('',*,*,#139,.F.);
#192=ORIENTED_EDGE('',*,*,#149,.T.);
#193=ORIENTED_EDGE('',*,*,#146,.T.);
#194=ORIENTED_EDGE('',*,*,#143,.T.);
#195=ORIENTED_EDGE('',*,*,#140,.T.);
#196=ORIENTED_EDGE('',*,*,#129,.T.);
#197=ORIENTED_EDGE('',*,*,#137,.T.);
#198=ORIENTED_EDGE('',*,*,#148,.F.);
#199=ORIENTED_EDGE('',*,*,#138,.F.);
#200=ORIENTED_EDGE('',*,*,#142,.F.);
#201=ORIENTED_EDGE('',*,*,#145,.F.);
#202=ORIENTED_EDGE('',*,*,#122,.T.);
#203=ORIENTED_EDGE('',*,*,#123,.T.);
#204=ORIENTED_EDGE('',*,*,#130,.T.);
#205=ORIENTED_EDGE('',*,*,#131,.T.);
#206=CONICAL_SURFACE('',#255,34.2656283751672,0.734783615089613);
#207=CONICAL_SURFACE('',#262,25.2252977659123,0.308923277602996);
#208=CONICAL_SURFACE('',#264,34.2656283751672,0.734783615089613);
#209=CONICAL_SURFACE('',#271,25.2252977659123,0.308923277602996);
#210=STYLED_ITEM('',(#426),#223);
#211=STYLED_ITEM('',(#426),#224);
#212=STYLED_ITEM('',(#426),#225);
#213=STYLED_ITEM('',(#426),#226);
#214=STYLED_ITEM('',(#426),#227);
#215=STYLED_ITEM('',(#426),#228);
#216=STYLED_ITEM('',(#426),#229);
#217=STYLED_ITEM('',(#426),#230);
#218=STYLED_ITEM('',(#426),#231);
#219=STYLED_ITEM('',(#426),#232);
#220=STYLED_ITEM('',(#426),#233);
#221=STYLED_ITEM('',(#426),#234);
#222=STYLED_ITEM('',(#425),#13);
#223=ADVANCED_FACE('',(#28),#206,.F.);
#224=ADVANCED_FACE('',(#29,#14),#20,.T.);
#225=ADVANCED_FACE('',(#30),#207,.F.);
#226=ADVANCED_FACE('',(#31),#208,.F.);
#227=ADVANCED_FACE('',(#32,#15),#21,.T.);
#228=ADVANCED_FACE('',(#33),#209,.F.);
#229=ADVANCED_FACE('',(#34),#22,.T.);
#230=ADVANCED_FACE('',(#35),#23,.T.);
#231=ADVANCED_FACE('',(#36),#24,.T.);
#232=ADVANCED_FACE('',(#37),#25,.T.);
#233=ADVANCED_FACE('',(#38,#16,#17),#26,.T.);
#234=ADVANCED_FACE('',(#39,#18,#19),#27,.F.);
#235=CLOSED_SHELL('',(#223,#224,#225,#226,#227,#228,#229,#230,#231,#232,
#233,#234));
#236=DERIVED_UNIT_ELEMENT(#238,1.);
#237=DERIVED_UNIT_ELEMENT(#411,3.);
#238=(
MASS_UNIT()
NAMED_UNIT(*)
SI_UNIT($,.GRAM.)
);
#239=DERIVED_UNIT((#236,#237));
#240=MEASURE_REPRESENTATION_ITEM('density measure',
POSITIVE_RATIO_MEASURE(7.85),#239);
#241=PROPERTY_DEFINITION_REPRESENTATION(#246,#243);
#242=PROPERTY_DEFINITION_REPRESENTATION(#247,#244);
#243=REPRESENTATION('material name',(#245),#408);
#244=REPRESENTATION('density',(#240),#408);
#245=DESCRIPTIVE_REPRESENTATION_ITEM(
'Acier, haute r\X\E9sistance, mod\X\E9r\X\E9ment alli\X\E9',
'Acier, haute r\X\E9sistance, mod\X\E9r\X\E9ment alli\X\E9');
#246=PROPERTY_DEFINITION('material property','material name',#418);
#247=PROPERTY_DEFINITION('material property','density of part',#418);
#248=DATE_TIME_ROLE('creation_date');
#249=APPLIED_DATE_AND_TIME_ASSIGNMENT(#250,#248,(#418));
#250=DATE_AND_TIME(#251,#252);
#251=CALENDAR_DATE(2024,13,3);
#252=LOCAL_TIME(0,0,0.,#253);
#253=COORDINATED_UNIVERSAL_TIME_OFFSET(0,0,.BEHIND.);
#254=AXIS2_PLACEMENT_3D('placement',#345,#279,#280);
#255=AXIS2_PLACEMENT_3D('',#346,#281,#282);
#256=AXIS2_PLACEMENT_3D('',#349,#283,#284);
#257=AXIS2_PLACEMENT_3D('',#350,#285,#286);
#258=AXIS2_PLACEMENT_3D('',#353,#288,#289);
#259=AXIS2_PLACEMENT_3D('',#354,#290,#291);
#260=AXIS2_PLACEMENT_3D('',#357,#292,#293);
#261=AXIS2_PLACEMENT_3D('',#358,#294,#295);
#262=AXIS2_PLACEMENT_3D('',#359,#296,#297);
#263=AXIS2_PLACEMENT_3D('',#362,#299,#300);
#264=AXIS2_PLACEMENT_3D('',#363,#301,#302);
#265=AXIS2_PLACEMENT_3D('',#366,#303,#304);
#266=AXIS2_PLACEMENT_3D('',#367,#305,#306);
#267=AXIS2_PLACEMENT_3D('',#370,#308,#309);
#268=AXIS2_PLACEMENT_3D('',#371,#310,#311);
#269=AXIS2_PLACEMENT_3D('',#374,#312,#313);
#270=AXIS2_PLACEMENT_3D('',#375,#314,#315);
#271=AXIS2_PLACEMENT_3D('',#376,#316,#317);
#272=AXIS2_PLACEMENT_3D('',#379,#319,#320);
#273=AXIS2_PLACEMENT_3D('',#380,#321,#322);
#274=AXIS2_PLACEMENT_3D('',#389,#327,#328);
#275=AXIS2_PLACEMENT_3D('',#395,#332,#333);
#276=AXIS2_PLACEMENT_3D('',#401,#337,#338);
#277=AXIS2_PLACEMENT_3D('',#404,#341,#342);
#278=AXIS2_PLACEMENT_3D('',#405,#343,#344);
#279=DIRECTION('axis',(0.,0.,1.));
#280=DIRECTION('refdir',(1.,0.,0.));
#281=DIRECTION('center_axis',(0.,0.,-1.));
#282=DIRECTION('ref_axis',(1.,0.,0.));
#283=DIRECTION('center_axis',(0.,0.,1.));
#284=DIRECTION('ref_axis',(1.,0.,0.));
#285=DIRECTION('center_axis',(0.,0.,1.));
#286=DIRECTION('ref_axis',(1.,0.,0.));
#287=DIRECTION('',(0.670426618958799,8.21035812971076E-17,0.741975840975616));
#288=DIRECTION('center_axis',(0.,0.,1.));
#289=DIRECTION('ref_axis',(1.,0.,0.));
#290=DIRECTION('center_axis',(0.,0.,-1.));
#291=DIRECTION('ref_axis',(-1.,0.,0.));
#292=DIRECTION('center_axis',(0.,0.,-1.));
#293=DIRECTION('ref_axis',(-1.,0.,0.));
#294=DIRECTION('center_axis',(0.,0.,-1.));
#295=DIRECTION('ref_axis',(-1.,0.,0.));
#296=DIRECTION('center_axis',(0.,0.,-1.));
#297=DIRECTION('ref_axis',(-1.,0.,0.));
#298=DIRECTION('',(-0.30403306092549,-3.72333114897374E-17,0.952661481253586));
#299=DIRECTION('center_axis',(0.,0.,-1.));
#300=DIRECTION('ref_axis',(-1.,0.,0.));
#301=DIRECTION('center_axis',(0.,0.,-1.));
#302=DIRECTION('ref_axis',(1.,0.,0.));
#303=DIRECTION('center_axis',(0.,0.,1.));
#304=DIRECTION('ref_axis',(1.,0.,0.));
#305=DIRECTION('center_axis',(0.,0.,1.));
#306=DIRECTION('ref_axis',(1.,0.,0.));
#307=DIRECTION('',(0.670426618958799,8.21035812971076E-17,0.741975840975616));
#308=DIRECTION('center_axis',(0.,0.,1.));
#309=DIRECTION('ref_axis',(1.,0.,0.));
#310=DIRECTION('center_axis',(0.,0.,-1.));
#311=DIRECTION('ref_axis',(-1.,0.,0.));
#312=DIRECTION('center_axis',(0.,0.,-1.));
#313=DIRECTION('ref_axis',(-1.,0.,0.));
#314=DIRECTION('center_axis',(0.,0.,-1.));
#315=DIRECTION('ref_axis',(-1.,0.,0.));
#316=DIRECTION('center_axis',(0.,0.,-1.));
#317=DIRECTION('ref_axis',(-1.,0.,0.));
#318=DIRECTION('',(-0.30403306092549,-3.72333114897374E-17,0.952661481253586));
#319=DIRECTION('center_axis',(0.,0.,-1.));
#320=DIRECTION('ref_axis',(-1.,0.,0.));
#321=DIRECTION('center_axis',(2.36564788494707E-16,-1.,0.));
#322=DIRECTION('ref_axis',(1.,2.36564788494707E-16,0.));
#323=DIRECTION('',(1.,2.36564788494707E-16,0.));
#324=DIRECTION('',(0.,0.,1.));
#325=DIRECTION('',(1.,2.36564788494707E-16,0.));
#326=DIRECTION('',(0.,0.,1.));
#327=DIRECTION('center_axis',(-1.,-4.93432455388958E-16,0.));
#328=DIRECTION('ref_axis',(4.93432455388958E-16,-1.,0.));
#329=DIRECTION('',(4.93432455388958E-16,-1.,0.));
#330=DIRECTION('',(4.93432455388958E-16,-1.,0.));
#331=DIRECTION('',(0.,0.,1.));
#332=DIRECTION('center_axis',(9.78888779978096E-17,1.,0.));
#333=DIRECTION('ref_axis',(-1.,9.78888779978096E-17,0.));
#334=DIRECTION('',(-1.,9.78888779978096E-17,0.));
#335=DIRECTION('',(-1.,9.78888779978096E-17,0.));
#336=DIRECTION('',(0.,0.,1.));
#337=DIRECTION('center_axis',(1.,0.,0.));
#338=DIRECTION('ref_axis',(0.,1.,0.));
#339=DIRECTION('',(0.,1.,0.));
#340=DIRECTION('',(0.,1.,0.));
#341=DIRECTION('center_axis',(0.,0.,1.));
#342=DIRECTION('ref_axis',(1.,0.,0.));
#343=DIRECTION('center_axis',(0.,0.,1.));
#344=DIRECTION('ref_axis',(1.,0.,0.));
#345=CARTESIAN_POINT('',(0.,0.,0.));
#346=CARTESIAN_POINT('Origin',(73.,25.0000000000006,0.));
#347=CARTESIAN_POINT('',(107.265628375167,25.0000000000006,0.));
#348=CARTESIAN_POINT('',(38.7343716248328,25.0000000000006,-8.17602570847468E-16));
#349=CARTESIAN_POINT('Origin',(73.,25.0000000000006,0.));
#350=CARTESIAN_POINT('Origin',(73.,25.0000000000006,0.));
#351=CARTESIAN_POINT('',(47.770064998316,25.0000000000006,10.));
#352=CARTESIAN_POINT('',(38.7343716248328,25.0000000000006,0.));
#353=CARTESIAN_POINT('Origin',(73.,25.0000000000006,10.));
#354=CARTESIAN_POINT('Origin',(73.,25.0000000000006,10.));
#355=CARTESIAN_POINT('',(47.7747022340877,25.0000000000006,10.));
#356=CARTESIAN_POINT('',(98.2252977659124,25.0000000000006,10.));
#357=CARTESIAN_POINT('Origin',(73.,25.0000000000006,10.));
#358=CARTESIAN_POINT('Origin',(73.,25.0000000000006,10.));
#359=CARTESIAN_POINT('Origin',(73.,25.0000000000006,10.));
#360=CARTESIAN_POINT('',(88.6510764845369,25.0000000000006,40.));
#361=CARTESIAN_POINT('',(98.2252977659124,25.0000000000006,10.));
#362=CARTESIAN_POINT('Origin',(73.,25.0000000000006,40.));
#363=CARTESIAN_POINT('Origin',(333.,25.0000000000006,0.));
#364=CARTESIAN_POINT('',(367.265628375167,25.0000000000006,0.));
#365=CARTESIAN_POINT('',(298.734371624833,25.0000000000006,-8.17602570847468E-16));
#366=CARTESIAN_POINT('Origin',(333.,25.0000000000006,0.));
#367=CARTESIAN_POINT('Origin',(333.,25.0000000000006,0.));
#368=CARTESIAN_POINT('',(307.770064998316,25.0000000000006,10.));
#369=CARTESIAN_POINT('',(298.734371624833,25.0000000000006,0.));
#370=CARTESIAN_POINT('Origin',(333.,25.0000000000006,10.));
#371=CARTESIAN_POINT('Origin',(333.,25.0000000000006,10.));
#372=CARTESIAN_POINT('',(307.774702234088,25.0000000000006,10.));
#373=CARTESIAN_POINT('',(358.225297765912,25.0000000000006,10.));
#374=CARTESIAN_POINT('Origin',(333.,25.0000000000006,10.));
#375=CARTESIAN_POINT('Origin',(333.,25.0000000000006,10.));
#376=CARTESIAN_POINT('Origin',(333.,25.0000000000006,10.));
#377=CARTESIAN_POINT('',(348.651076484537,25.0000000000006,40.));
#378=CARTESIAN_POINT('',(358.225297765912,25.0000000000006,10.));
#379=CARTESIAN_POINT('Origin',(333.,25.0000000000006,40.));
#380=CARTESIAN_POINT('Origin',(-69.1999999999999,-14.9999999999995,0.));
#381=CARTESIAN_POINT('',(-69.1999999999999,-14.9999999999995,0.));
#382=CARTESIAN_POINT('',(475.2,-14.9999999999994,0.));
#383=CARTESIAN_POINT('',(-69.1999999999999,-14.9999999999995,0.));
#384=CARTESIAN_POINT('',(475.2,-14.9999999999994,40.));
#385=CARTESIAN_POINT('',(475.2,-14.9999999999994,0.));
#386=CARTESIAN_POINT('',(-69.1999999999999,-14.9999999999995,40.));
#387=CARTESIAN_POINT('',(-69.1999999999999,-14.9999999999995,40.));
#388=CARTESIAN_POINT('',(-69.1999999999999,-14.9999999999995,0.));
#389=CARTESIAN_POINT('Origin',(-69.1999999999999,75.0000000000006,0.));
#390=CARTESIAN_POINT('',(-69.1999999999999,75.0000000000006,0.));
#391=CARTESIAN_POINT('',(-69.1999999999999,75.0000000000006,0.));
#392=CARTESIAN_POINT('',(-69.1999999999999,75.0000000000006,40.));
#393=CARTESIAN_POINT('',(-69.1999999999999,75.0000000000006,40.));
#394=CARTESIAN_POINT('',(-69.1999999999999,75.0000000000006,0.));
#395=CARTESIAN_POINT('Origin',(475.2,75.0000000000006,0.));
#396=CARTESIAN_POINT('',(475.2,75.0000000000006,0.));
#397=CARTESIAN_POINT('',(475.2,75.0000000000006,0.));
#398=CARTESIAN_POINT('',(475.2,75.0000000000006,40.));
#399=CARTESIAN_POINT('',(475.2,75.0000000000006,40.));
#400=CARTESIAN_POINT('',(475.2,75.0000000000006,0.));
#401=CARTESIAN_POINT('Origin',(475.2,-14.9999999999994,0.));
#402=CARTESIAN_POINT('',(475.2,-14.9999999999994,0.));
#403=CARTESIAN_POINT('',(475.2,-14.9999999999994,40.));
#404=CARTESIAN_POINT('Origin',(203.,30.0000000000006,40.));
#405=CARTESIAN_POINT('Origin',(203.,30.0000000000006,0.));
#406=UNCERTAINTY_MEASURE_WITH_UNIT(LENGTH_MEASURE(0.01),#410,
'DISTANCE_ACCURACY_VALUE',
'Maximum model space distance between geometric entities at asserted c
onnectivities');
#407=UNCERTAINTY_MEASURE_WITH_UNIT(LENGTH_MEASURE(0.01),#410,
'DISTANCE_ACCURACY_VALUE',
'Maximum model space distance between geometric entities at asserted c
onnectivities');
#408=(
GEOMETRIC_REPRESENTATION_CONTEXT(3)
GLOBAL_UNCERTAINTY_ASSIGNED_CONTEXT((#406))
GLOBAL_UNIT_ASSIGNED_CONTEXT((#410,#412,#413))
REPRESENTATION_CONTEXT('','3D')
);
#409=(
GEOMETRIC_REPRESENTATION_CONTEXT(3)
GLOBAL_UNCERTAINTY_ASSIGNED_CONTEXT((#407))
GLOBAL_UNIT_ASSIGNED_CONTEXT((#410,#412,#413))
REPRESENTATION_CONTEXT('','3D')
);
#410=(
LENGTH_UNIT()
NAMED_UNIT(*)
SI_UNIT(.MILLI.,.METRE.)
);
#411=(
LENGTH_UNIT()
NAMED_UNIT(*)
SI_UNIT(.CENTI.,.METRE.)
);
#412=(
NAMED_UNIT(*)
PLANE_ANGLE_UNIT()
SI_UNIT($,.RADIAN.)
);
#413=(
NAMED_UNIT(*)
SI_UNIT($,.STERADIAN.)
SOLID_ANGLE_UNIT()
);
#414=SHAPE_DEFINITION_REPRESENTATION(#415,#416);
#415=PRODUCT_DEFINITION_SHAPE('',$,#418);
#416=SHAPE_REPRESENTATION('',(#254),#408);
#417=PRODUCT_DEFINITION_CONTEXT('part definition',#422,'design');
#418=PRODUCT_DEFINITION('Attache outil_ Flasque arri\X\E8re',
'Flasque arri\X\E8re cones femelles frais\X\E9s',#419,#417);
#419=PRODUCT_DEFINITION_FORMATION('',$,#424);
#420=PRODUCT_RELATED_PRODUCT_CATEGORY(
'Flasque arri\X\E8re cones femelles frais\X\E9s',
'Flasque arri\X\E8re cones femelles frais\X\E9s',(#424));
#421=APPLICATION_PROTOCOL_DEFINITION('international standard',
'automotive_design',2009,#422);
#422=APPLICATION_CONTEXT(
'Core Data for Automotive Mechanical Design Process');
#423=PRODUCT_CONTEXT('part definition',#422,'mechanical');
#424=PRODUCT('Attache outil_ Flasque arri\X\E8re',
'Flasque arri\X\E8re cones femelles frais\X\E9s',$,(#423));
#425=PRESENTATION_STYLE_ASSIGNMENT((#427));
#426=PRESENTATION_STYLE_ASSIGNMENT((#428));
#427=SURFACE_STYLE_USAGE(.BOTH.,#433);
#428=SURFACE_STYLE_USAGE(.BOTH.,#434);
#429=SURFACE_STYLE_RENDERING_WITH_PROPERTIES($,#441,(#431));
#430=SURFACE_STYLE_RENDERING_WITH_PROPERTIES($,#442,(#432));
#431=SURFACE_STYLE_TRANSPARENT(0.);
#432=SURFACE_STYLE_TRANSPARENT(0.);
#433=SURFACE_SIDE_STYLE('',(#435,#429));
#434=SURFACE_SIDE_STYLE('',(#436,#430));
#435=SURFACE_STYLE_FILL_AREA(#437);
#436=SURFACE_STYLE_FILL_AREA(#438);
#437=FILL_AREA_STYLE('',(#439));
#438=FILL_AREA_STYLE('',(#440));
#439=FILL_AREA_STYLE_COLOUR('',#441);
#440=FILL_AREA_STYLE_COLOUR('',#442);
#441=COLOUR_RGB('',0.745098039215686,0.737254901960784,0.729411764705882);
#442=COLOUR_RGB('',0.87843137254902,0.874509803921569,0.858823529411765);
ENDSEC;
END-ISO-10303-21;
