ISO-10303-21;
HEADER;
/* Generated by software containing ST-Developer
 * from STEP Tools, Inc. (www.steptools.com) 
 */

FILE_DESCRIPTION(
/* description */ (''),
/* implementation_level */ '2;1');

FILE_NAME(
/* name */ 'Clamp_Bateau.step',
/* time_stamp */ '2024-01-08T20:50:10+01:00',
/* author */ (''),
/* organization */ (''),
/* preprocessor_version */ 'ST-DEVELOPER v20',
/* originating_system */ 'Autodesk Translation Framework v12.14.0.127',

/* authorisation */ '');

FILE_SCHEMA (('AUTOMOTIVE_DESIGN { 1 0 10303 214 3 1 1 }'));
ENDSEC;

DATA;
#10=MECHANICAL_DESIGN_GEOMETRIC_PRESENTATION_REPRESENTATION('',(#13),#261);
#11=SHAPE_REPRESENTATION_RELATIONSHIP('SRR','None',#268,#12);
#12=ADVANCED_BREP_SHAPE_REPRESENTATION('',(#14),#260);
#13=STYLED_ITEM('',(#278),#14);
#14=MANIFOLD_SOLID_BREP('Corps1',#153);
#15=FACE_BOUND('',#40,.T.);
#16=FACE_BOUND('',#41,.T.);
#17=FACE_BOUND('',#43,.T.);
#18=FACE_BOUND('',#44,.T.);
#19=PLANE('',#173);
#20=PLANE('',#174);
#21=PLANE('',#175);
#22=PLANE('',#176);
#23=PLANE('',#177);
#24=PLANE('',#178);
#25=FACE_OUTER_BOUND('',#33,.T.);
#26=FACE_OUTER_BOUND('',#34,.T.);
#27=FACE_OUTER_BOUND('',#35,.T.);
#28=FACE_OUTER_BOUND('',#36,.T.);
#29=FACE_OUTER_BOUND('',#37,.T.);
#30=FACE_OUTER_BOUND('',#38,.T.);
#31=FACE_OUTER_BOUND('',#39,.T.);
#32=FACE_OUTER_BOUND('',#42,.T.);
#33=EDGE_LOOP('',(#107,#108,#109,#110));
#34=EDGE_LOOP('',(#111,#112,#113,#114));
#35=EDGE_LOOP('',(#115,#116,#117,#118));
#36=EDGE_LOOP('',(#119,#120,#121,#122));
#37=EDGE_LOOP('',(#123,#124,#125,#126));
#38=EDGE_LOOP('',(#127,#128,#129,#130));
#39=EDGE_LOOP('',(#131,#132,#133,#134));
#40=EDGE_LOOP('',(#135));
#41=EDGE_LOOP('',(#136));
#42=EDGE_LOOP('',(#137,#138,#139,#140));
#43=EDGE_LOOP('',(#141));
#44=EDGE_LOOP('',(#142));
#45=LINE('',#224,#59);
#46=LINE('',#230,#60);
#47=LINE('',#235,#61);
#48=LINE('',#237,#62);
#49=LINE('',#239,#63);
#50=LINE('',#240,#64);
#51=LINE('',#243,#65);
#52=LINE('',#245,#66);
#53=LINE('',#246,#67);
#54=LINE('',#249,#68);
#55=LINE('',#251,#69);
#56=LINE('',#252,#70);
#57=LINE('',#254,#71);
#58=LINE('',#255,#72);
#59=VECTOR('',#185,2.5);
#60=VECTOR('',#192,2.5);
#61=VECTOR('',#197,10.);
#62=VECTOR('',#198,10.);
#63=VECTOR('',#199,10.);
#64=VECTOR('',#200,10.);
#65=VECTOR('',#203,10.);
#66=VECTOR('',#204,10.);
#67=VECTOR('',#205,10.);
#68=VECTOR('',#208,10.);
#69=VECTOR('',#209,10.);
#70=VECTOR('',#210,10.);
#71=VECTOR('',#213,10.);
#72=VECTOR('',#214,10.);
#73=CIRCLE('',#168,2.5);
#74=CIRCLE('',#169,2.5);
#75=CIRCLE('',#171,2.5);
#76=CIRCLE('',#172,2.5);
#77=VERTEX_POINT('',#221);
#78=VERTEX_POINT('',#223);
#79=VERTEX_POINT('',#227);
#80=VERTEX_POINT('',#229);
#81=VERTEX_POINT('',#233);
#82=VERTEX_POINT('',#234);
#83=VERTEX_POINT('',#236);
#84=VERTEX_POINT('',#238);
#85=VERTEX_POINT('',#242);
#86=VERTEX_POINT('',#244);
#87=VERTEX_POINT('',#248);
#88=VERTEX_POINT('',#250);
#89=EDGE_CURVE('',#77,#77,#73,.T.);
#90=EDGE_CURVE('',#77,#78,#45,.T.);
#91=EDGE_CURVE('',#78,#78,#74,.T.);
#92=EDGE_CURVE('',#79,#79,#75,.T.);
#93=EDGE_CURVE('',#79,#80,#46,.T.);
#94=EDGE_CURVE('',#80,#80,#76,.T.);
#95=EDGE_CURVE('',#81,#82,#47,.T.);
#96=EDGE_CURVE('',#81,#83,#48,.T.);
#97=EDGE_CURVE('',#84,#83,#49,.T.);
#98=EDGE_CURVE('',#82,#84,#50,.T.);
#99=EDGE_CURVE('',#82,#85,#51,.T.);
#100=EDGE_CURVE('',#86,#84,#52,.T.);
#101=EDGE_CURVE('',#85,#86,#53,.T.);
#102=EDGE_CURVE('',#85,#87,#54,.T.);
#103=EDGE_CURVE('',#88,#86,#55,.T.);
#104=EDGE_CURVE('',#87,#88,#56,.T.);
#105=EDGE_CURVE('',#87,#81,#57,.T.);
#106=EDGE_CURVE('',#83,#88,#58,.T.);
#107=ORIENTED_EDGE('',*,*,#89,.F.);
#108=ORIENTED_EDGE('',*,*,#90,.T.);
#109=ORIENTED_EDGE('',*,*,#91,.T.);
#110=ORIENTED_EDGE('',*,*,#90,.F.);
#111=ORIENTED_EDGE('',*,*,#92,.F.);
#112=ORIENTED_EDGE('',*,*,#93,.T.);
#113=ORIENTED_EDGE('',*,*,#94,.T.);
#114=ORIENTED_EDGE('',*,*,#93,.F.);
#115=ORIENTED_EDGE('',*,*,#95,.F.);
#116=ORIENTED_EDGE('',*,*,#96,.T.);
#117=ORIENTED_EDGE('',*,*,#97,.F.);
#118=ORIENTED_EDGE('',*,*,#98,.F.);
#119=ORIENTED_EDGE('',*,*,#99,.F.);
#120=ORIENTED_EDGE('',*,*,#98,.T.);
#121=ORIENTED_EDGE('',*,*,#100,.F.);
#122=ORIENTED_EDGE('',*,*,#101,.F.);
#123=ORIENTED_EDGE('',*,*,#102,.F.);
#124=ORIENTED_EDGE('',*,*,#101,.T.);
#125=ORIENTED_EDGE('',*,*,#103,.F.);
#126=ORIENTED_EDGE('',*,*,#104,.F.);
#127=ORIENTED_EDGE('',*,*,#105,.F.);
#128=ORIENTED_EDGE('',*,*,#104,.T.);
#129=ORIENTED_EDGE('',*,*,#106,.F.);
#130=ORIENTED_EDGE('',*,*,#96,.F.);
#131=ORIENTED_EDGE('',*,*,#106,.T.);
#132=ORIENTED_EDGE('',*,*,#103,.T.);
#133=ORIENTED_EDGE('',*,*,#100,.T.);
#134=ORIENTED_EDGE('',*,*,#97,.T.);
#135=ORIENTED_EDGE('',*,*,#92,.T.);
#136=ORIENTED_EDGE('',*,*,#89,.T.);
#137=ORIENTED_EDGE('',*,*,#105,.T.);
#138=ORIENTED_EDGE('',*,*,#95,.T.);
#139=ORIENTED_EDGE('',*,*,#99,.T.);
#140=ORIENTED_EDGE('',*,*,#102,.T.);
#141=ORIENTED_EDGE('',*,*,#94,.F.);
#142=ORIENTED_EDGE('',*,*,#91,.F.);
#143=CYLINDRICAL_SURFACE('',#167,2.5);
#144=CYLINDRICAL_SURFACE('',#170,2.5);
#145=ADVANCED_FACE('',(#25),#143,.F.);
#146=ADVANCED_FACE('',(#26),#144,.F.);
#147=ADVANCED_FACE('',(#27),#19,.T.);
#148=ADVANCED_FACE('',(#28),#20,.T.);
#149=ADVANCED_FACE('',(#29),#21,.T.);
#150=ADVANCED_FACE('',(#30),#22,.T.);
#151=ADVANCED_FACE('',(#31,#15,#16),#23,.T.);
#152=ADVANCED_FACE('',(#32,#17,#18),#24,.F.);
#153=CLOSED_SHELL('',(#145,#146,#147,#148,#149,#150,#151,#152));
#154=DERIVED_UNIT_ELEMENT(#156,1.);
#155=DERIVED_UNIT_ELEMENT(#263,-3.);
#156=(
MASS_UNIT()
NAMED_UNIT(*)
SI_UNIT(.KILO.,.GRAM.)
);
#157=DERIVED_UNIT((#154,#155));
#158=MEASURE_REPRESENTATION_ITEM('density measure',
POSITIVE_RATIO_MEASURE(7850.),#157);
#159=PROPERTY_DEFINITION_REPRESENTATION(#164,#161);
#160=PROPERTY_DEFINITION_REPRESENTATION(#165,#162);
#161=REPRESENTATION('material name',(#163),#260);
#162=REPRESENTATION('density',(#158),#260);
#163=DESCRIPTIVE_REPRESENTATION_ITEM('Acier','Acier');
#164=PROPERTY_DEFINITION('material property','material name',#270);
#165=PROPERTY_DEFINITION('material property','density of part',#270);
#166=AXIS2_PLACEMENT_3D('',#219,#179,#180);
#167=AXIS2_PLACEMENT_3D('',#220,#181,#182);
#168=AXIS2_PLACEMENT_3D('',#222,#183,#184);
#169=AXIS2_PLACEMENT_3D('',#225,#186,#187);
#170=AXIS2_PLACEMENT_3D('',#226,#188,#189);
#171=AXIS2_PLACEMENT_3D('',#228,#190,#191);
#172=AXIS2_PLACEMENT_3D('',#231,#193,#194);
#173=AXIS2_PLACEMENT_3D('',#232,#195,#196);
#174=AXIS2_PLACEMENT_3D('',#241,#201,#202);
#175=AXIS2_PLACEMENT_3D('',#247,#206,#207);
#176=AXIS2_PLACEMENT_3D('',#253,#211,#212);
#177=AXIS2_PLACEMENT_3D('',#256,#215,#216);
#178=AXIS2_PLACEMENT_3D('',#257,#217,#218);
#179=DIRECTION('axis',(0.,0.,1.));
#180=DIRECTION('refdir',(1.,0.,0.));
#181=DIRECTION('center_axis',(0.,0.,1.));
#182=DIRECTION('ref_axis',(1.,0.,0.));
#183=DIRECTION('center_axis',(0.,0.,-1.));
#184=DIRECTION('ref_axis',(1.,0.,0.));
#185=DIRECTION('',(0.,0.,-1.));
#186=DIRECTION('center_axis',(0.,0.,-1.));
#187=DIRECTION('ref_axis',(1.,0.,0.));
#188=DIRECTION('center_axis',(0.,0.,1.));
#189=DIRECTION('ref_axis',(1.,0.,0.));
#190=DIRECTION('center_axis',(0.,0.,-1.));
#191=DIRECTION('ref_axis',(1.,0.,0.));
#192=DIRECTION('',(0.,0.,-1.));
#193=DIRECTION('center_axis',(0.,0.,-1.));
#194=DIRECTION('ref_axis',(1.,0.,0.));
#195=DIRECTION('center_axis',(1.,1.11022302462516E-16,0.));
#196=DIRECTION('ref_axis',(-1.11022302462516E-16,1.,0.));
#197=DIRECTION('',(1.11022302462516E-16,-1.,0.));
#198=DIRECTION('',(0.,0.,1.));
#199=DIRECTION('',(-1.11022302462516E-16,1.,0.));
#200=DIRECTION('',(0.,0.,1.));
#201=DIRECTION('center_axis',(-3.36431219583381E-17,-1.,0.));
#202=DIRECTION('ref_axis',(1.,-3.36431219583381E-17,0.));
#203=DIRECTION('',(-1.,3.36431219583381E-17,0.));
#204=DIRECTION('',(1.,-3.36431219583381E-17,0.));
#205=DIRECTION('',(0.,0.,1.));
#206=DIRECTION('center_axis',(-1.,-1.11022302462516E-16,0.));
#207=DIRECTION('ref_axis',(1.11022302462516E-16,-1.,0.));
#208=DIRECTION('',(-1.11022302462516E-16,1.,0.));
#209=DIRECTION('',(1.11022302462516E-16,-1.,0.));
#210=DIRECTION('',(0.,0.,1.));
#211=DIRECTION('center_axis',(0.,1.,0.));
#212=DIRECTION('ref_axis',(-1.,0.,0.));
#213=DIRECTION('',(1.,0.,0.));
#214=DIRECTION('',(-1.,0.,0.));
#215=DIRECTION('center_axis',(0.,0.,1.));
#216=DIRECTION('ref_axis',(1.,0.,0.));
#217=DIRECTION('center_axis',(0.,0.,1.));
#218=DIRECTION('ref_axis',(1.,0.,0.));
#219=CARTESIAN_POINT('',(0.,0.,0.));
#220=CARTESIAN_POINT('Origin',(-11.5,2.72569847278704E-15,0.));
#221=CARTESIAN_POINT('',(-14.,2.4195367730002E-15,3.));
#222=CARTESIAN_POINT('Origin',(-11.5,2.72569847278704E-15,3.));
#223=CARTESIAN_POINT('',(-14.,2.4195367730002E-15,0.));
#224=CARTESIAN_POINT('',(-14.,2.4195367730002E-15,0.));
#225=CARTESIAN_POINT('Origin',(-11.5,2.72569847278704E-15,0.));
#226=CARTESIAN_POINT('Origin',(11.5,3.45344802796248E-16,0.));
#227=CARTESIAN_POINT('',(9.,3.91831030094094E-17,3.));
#228=CARTESIAN_POINT('Origin',(11.5,3.45344802796248E-16,3.));
#229=CARTESIAN_POINT('',(9.,3.91831030094094E-17,0.));
#230=CARTESIAN_POINT('',(9.,3.91831030094094E-17,0.));
#231=CARTESIAN_POINT('Origin',(11.5,3.45344802796248E-16,0.));
#232=CARTESIAN_POINT('Origin',(16.5,-10.,0.));
#233=CARTESIAN_POINT('',(16.5,10.,0.));
#234=CARTESIAN_POINT('',(16.5,-10.,0.));
#235=CARTESIAN_POINT('',(16.5,10.,0.));
#236=CARTESIAN_POINT('',(16.5,10.,3.));
#237=CARTESIAN_POINT('',(16.5,10.,0.));
#238=CARTESIAN_POINT('',(16.5,-10.,3.));
#239=CARTESIAN_POINT('',(16.5,10.,3.));
#240=CARTESIAN_POINT('',(16.5,-10.,0.));
#241=CARTESIAN_POINT('Origin',(-16.5,-10.,0.));
#242=CARTESIAN_POINT('',(-16.5,-10.,0.));
#243=CARTESIAN_POINT('',(16.5,-10.,0.));
#244=CARTESIAN_POINT('',(-16.5,-10.,3.));
#245=CARTESIAN_POINT('',(16.5,-10.,3.));
#246=CARTESIAN_POINT('',(-16.5,-10.,0.));
#247=CARTESIAN_POINT('Origin',(-16.5,10.,0.));
#248=CARTESIAN_POINT('',(-16.5,10.,0.));
#249=CARTESIAN_POINT('',(-16.5,-10.,0.));
#250=CARTESIAN_POINT('',(-16.5,10.,3.));
#251=CARTESIAN_POINT('',(-16.5,-10.,3.));
#252=CARTESIAN_POINT('',(-16.5,10.,0.));
#253=CARTESIAN_POINT('Origin',(16.5,10.,0.));
#254=CARTESIAN_POINT('',(-16.5,10.,0.));
#255=CARTESIAN_POINT('',(-16.5,10.,3.));
#256=CARTESIAN_POINT('Origin',(-2.22044604925031E-15,0.,3.));
#257=CARTESIAN_POINT('Origin',(-2.22044604925031E-15,0.,0.));
#258=UNCERTAINTY_MEASURE_WITH_UNIT(LENGTH_MEASURE(0.01),#262,
'DISTANCE_ACCURACY_VALUE',
'Maximum model space distance between geometric entities at asserted c
onnectivities');
#259=UNCERTAINTY_MEASURE_WITH_UNIT(LENGTH_MEASURE(0.01),#262,
'DISTANCE_ACCURACY_VALUE',
'Maximum model space distance between geometric entities at asserted c
onnectivities');
#260=(
GEOMETRIC_REPRESENTATION_CONTEXT(3)
GLOBAL_UNCERTAINTY_ASSIGNED_CONTEXT((#258))
GLOBAL_UNIT_ASSIGNED_CONTEXT((#262,#264,#265))
REPRESENTATION_CONTEXT('','3D')
);
#261=(
GEOMETRIC_REPRESENTATION_CONTEXT(3)
GLOBAL_UNCERTAINTY_ASSIGNED_CONTEXT((#259))
GLOBAL_UNIT_ASSIGNED_CONTEXT((#262,#264,#265))
REPRESENTATION_CONTEXT('','3D')
);
#262=(
LENGTH_UNIT()
NAMED_UNIT(*)
SI_UNIT(.MILLI.,.METRE.)
);
#263=(
LENGTH_UNIT()
NAMED_UNIT(*)
SI_UNIT($,.METRE.)
);
#264=(
NAMED_UNIT(*)
PLANE_ANGLE_UNIT()
SI_UNIT($,.RADIAN.)
);
#265=(
NAMED_UNIT(*)
SI_UNIT($,.STERADIAN.)
SOLID_ANGLE_UNIT()
);
#266=SHAPE_DEFINITION_REPRESENTATION(#267,#268);
#267=PRODUCT_DEFINITION_SHAPE('',$,#270);
#268=SHAPE_REPRESENTATION('',(#166),#260);
#269=PRODUCT_DEFINITION_CONTEXT('part definition',#274,'design');
#270=PRODUCT_DEFINITION('Clamp_Bateau','Clamp_Bateau v6',#271,#269);
#271=PRODUCT_DEFINITION_FORMATION('',$,#276);
#272=PRODUCT_RELATED_PRODUCT_CATEGORY('Clamp_Bateau v6',
'Clamp_Bateau v6',(#276));
#273=APPLICATION_PROTOCOL_DEFINITION('international standard',
'automotive_design',2009,#274);
#274=APPLICATION_CONTEXT(
'Core Data for Automotive Mechanical Design Process');
#275=PRODUCT_CONTEXT('part definition',#274,'mechanical');
#276=PRODUCT('Clamp_Bateau','Clamp_Bateau v6',$,(#275));
#277=PRESENTATION_STYLE_ASSIGNMENT((#279));
#278=PRESENTATION_STYLE_ASSIGNMENT((#280));
#279=SURFACE_STYLE_USAGE(.BOTH.,#281);
#280=SURFACE_STYLE_USAGE(.BOTH.,#282);
#281=SURFACE_SIDE_STYLE('',(#283));
#282=SURFACE_SIDE_STYLE('',(#284));
#283=SURFACE_STYLE_FILL_AREA(#285);
#284=SURFACE_STYLE_FILL_AREA(#286);
#285=FILL_AREA_STYLE('Acier - Satin\X\E9',(#287));
#286=FILL_AREA_STYLE('Cuivre - Brut',(#288));
#287=FILL_AREA_STYLE_COLOUR('Acier - Satin\X\E9',#289);
#288=FILL_AREA_STYLE_COLOUR('Cuivre - Brut',#290);
#289=COLOUR_RGB('Acier - Satin\X\E9',0.627450980392157,0.627450980392157,
0.627450980392157);
#290=COLOUR_RGB('Cuivre - Brut',0.,0.,0.);
ENDSEC;
END-ISO-10303-21;
