ISO-10303-21;
HEADER;
/* Generated by software containing ST-Developer
 * from STEP Tools, Inc. (www.steptools.com) 
 */

FILE_DESCRIPTION(
/* description */ (''),
/* implementation_level */ '2;1');

FILE_NAME(
/* name */ 'bague infrieur safran v1.step',
/* time_stamp */ '2024-04-24T11:59:21+02:00',
/* author */ (''),
/* organization */ (''),
/* preprocessor_version */ 'ST-DEVELOPER v20',
/* originating_system */ 'Autodesk Translation Framework v12.20.1.177',

/* authorisation */ '');

FILE_SCHEMA (('AUTOMOTIVE_DESIGN { 1 0 10303 214 3 1 1 }'));
ENDSEC;

DATA;
#10=MECHANICAL_DESIGN_GEOMETRIC_PRESENTATION_REPRESENTATION('',(#13),#200);
#11=SHAPE_REPRESENTATION_RELATIONSHIP('SRR','None',#207,#12);
#12=ADVANCED_BREP_SHAPE_REPRESENTATION('',(#14),#199);
#13=STYLED_ITEM('',(#216),#14);
#14=MANIFOLD_SOLID_BREP('Corps1',#107);
#15=CYLINDRICAL_SURFACE('',#126,34.);
#16=CYLINDRICAL_SURFACE('',#131,25.);
#17=FACE_BOUND('',#30,.T.);
#18=FACE_BOUND('',#35,.T.);
#19=PLANE('',#124);
#20=PLANE('',#133);
#21=FACE_OUTER_BOUND('',#28,.T.);
#22=FACE_OUTER_BOUND('',#29,.T.);
#23=FACE_OUTER_BOUND('',#31,.T.);
#24=FACE_OUTER_BOUND('',#32,.T.);
#25=FACE_OUTER_BOUND('',#33,.T.);
#26=FACE_OUTER_BOUND('',#34,.T.);
#27=FACE_OUTER_BOUND('',#36,.T.);
#28=EDGE_LOOP('',(#73,#74,#75,#76));
#29=EDGE_LOOP('',(#77));
#30=EDGE_LOOP('',(#78));
#31=EDGE_LOOP('',(#79,#80,#81,#82));
#32=EDGE_LOOP('',(#83,#84,#85,#86));
#33=EDGE_LOOP('',(#87,#88,#89,#90));
#34=EDGE_LOOP('',(#91));
#35=EDGE_LOOP('',(#92));
#36=EDGE_LOOP('',(#93,#94,#95,#96));
#37=LINE('',#175,#42);
#38=LINE('',#182,#43);
#39=LINE('',#188,#44);
#40=LINE('',#193,#45);
#41=LINE('',#196,#46);
#42=VECTOR('',#141,33.);
#43=VECTOR('',#150,34.);
#44=VECTOR('',#157,26.);
#45=VECTOR('',#164,25.);
#46=VECTOR('',#169,25.5);
#47=CIRCLE('',#122,32.);
#48=CIRCLE('',#123,34.);
#49=CIRCLE('',#125,26.);
#50=CIRCLE('',#127,34.);
#51=CIRCLE('',#129,25.);
#52=CIRCLE('',#130,27.);
#53=CIRCLE('',#132,25.);
#54=VERTEX_POINT('',#172);
#55=VERTEX_POINT('',#174);
#56=VERTEX_POINT('',#178);
#57=VERTEX_POINT('',#181);
#58=VERTEX_POINT('',#185);
#59=VERTEX_POINT('',#187);
#60=VERTEX_POINT('',#191);
#61=EDGE_CURVE('',#54,#54,#47,.T.);
#62=EDGE_CURVE('',#54,#55,#37,.T.);
#63=EDGE_CURVE('',#55,#55,#48,.T.);
#64=EDGE_CURVE('',#56,#56,#49,.T.);
#65=EDGE_CURVE('',#55,#57,#38,.T.);
#66=EDGE_CURVE('',#57,#57,#50,.T.);
#67=EDGE_CURVE('',#58,#58,#51,.T.);
#68=EDGE_CURVE('',#58,#59,#39,.T.);
#69=EDGE_CURVE('',#59,#59,#52,.T.);
#70=EDGE_CURVE('',#60,#60,#53,.T.);
#71=EDGE_CURVE('',#60,#58,#40,.T.);
#72=EDGE_CURVE('',#56,#60,#41,.T.);
#73=ORIENTED_EDGE('',*,*,#61,.T.);
#74=ORIENTED_EDGE('',*,*,#62,.T.);
#75=ORIENTED_EDGE('',*,*,#63,.T.);
#76=ORIENTED_EDGE('',*,*,#62,.F.);
#77=ORIENTED_EDGE('',*,*,#61,.F.);
#78=ORIENTED_EDGE('',*,*,#64,.F.);
#79=ORIENTED_EDGE('',*,*,#63,.F.);
#80=ORIENTED_EDGE('',*,*,#65,.T.);
#81=ORIENTED_EDGE('',*,*,#66,.T.);
#82=ORIENTED_EDGE('',*,*,#65,.F.);
#83=ORIENTED_EDGE('',*,*,#67,.T.);
#84=ORIENTED_EDGE('',*,*,#68,.T.);
#85=ORIENTED_EDGE('',*,*,#69,.T.);
#86=ORIENTED_EDGE('',*,*,#68,.F.);
#87=ORIENTED_EDGE('',*,*,#70,.F.);
#88=ORIENTED_EDGE('',*,*,#71,.T.);
#89=ORIENTED_EDGE('',*,*,#67,.F.);
#90=ORIENTED_EDGE('',*,*,#71,.F.);
#91=ORIENTED_EDGE('',*,*,#66,.F.);
#92=ORIENTED_EDGE('',*,*,#69,.F.);
#93=ORIENTED_EDGE('',*,*,#64,.T.);
#94=ORIENTED_EDGE('',*,*,#72,.T.);
#95=ORIENTED_EDGE('',*,*,#70,.T.);
#96=ORIENTED_EDGE('',*,*,#72,.F.);
#97=CONICAL_SURFACE('',#121,33.,1.0471975511966);
#98=CONICAL_SURFACE('',#128,26.,0.785398163397449);
#99=CONICAL_SURFACE('',#134,25.5,0.785398163397451);
#100=ADVANCED_FACE('',(#21),#97,.T.);
#101=ADVANCED_FACE('',(#22,#17),#19,.T.);
#102=ADVANCED_FACE('',(#23),#15,.T.);
#103=ADVANCED_FACE('',(#24),#98,.F.);
#104=ADVANCED_FACE('',(#25),#16,.F.);
#105=ADVANCED_FACE('',(#26,#18),#20,.F.);
#106=ADVANCED_FACE('',(#27),#99,.F.);
#107=CLOSED_SHELL('',(#100,#101,#102,#103,#104,#105,#106));
#108=DERIVED_UNIT_ELEMENT(#110,1.);
#109=DERIVED_UNIT_ELEMENT(#202,-3.);
#110=(
MASS_UNIT()
NAMED_UNIT(*)
SI_UNIT(.KILO.,.GRAM.)
);
#111=DERIVED_UNIT((#108,#109));
#112=MEASURE_REPRESENTATION_ITEM('density measure',
POSITIVE_RATIO_MEASURE(7850.),#111);
#113=PROPERTY_DEFINITION_REPRESENTATION(#118,#115);
#114=PROPERTY_DEFINITION_REPRESENTATION(#119,#116);
#115=REPRESENTATION('material name',(#117),#199);
#116=REPRESENTATION('density',(#112),#199);
#117=DESCRIPTIVE_REPRESENTATION_ITEM('Acier','Acier');
#118=PROPERTY_DEFINITION('material property','material name',#209);
#119=PROPERTY_DEFINITION('material property','density of part',#209);
#120=AXIS2_PLACEMENT_3D('',#170,#135,#136);
#121=AXIS2_PLACEMENT_3D('',#171,#137,#138);
#122=AXIS2_PLACEMENT_3D('',#173,#139,#140);
#123=AXIS2_PLACEMENT_3D('',#176,#142,#143);
#124=AXIS2_PLACEMENT_3D('',#177,#144,#145);
#125=AXIS2_PLACEMENT_3D('',#179,#146,#147);
#126=AXIS2_PLACEMENT_3D('',#180,#148,#149);
#127=AXIS2_PLACEMENT_3D('',#183,#151,#152);
#128=AXIS2_PLACEMENT_3D('',#184,#153,#154);
#129=AXIS2_PLACEMENT_3D('',#186,#155,#156);
#130=AXIS2_PLACEMENT_3D('',#189,#158,#159);
#131=AXIS2_PLACEMENT_3D('',#190,#160,#161);
#132=AXIS2_PLACEMENT_3D('',#192,#162,#163);
#133=AXIS2_PLACEMENT_3D('',#194,#165,#166);
#134=AXIS2_PLACEMENT_3D('',#195,#167,#168);
#135=DIRECTION('axis',(0.,0.,1.));
#136=DIRECTION('refdir',(1.,0.,0.));
#137=DIRECTION('center_axis',(0.,0.,-1.));
#138=DIRECTION('ref_axis',(1.,0.,0.));
#139=DIRECTION('center_axis',(0.,0.,-1.));
#140=DIRECTION('ref_axis',(1.,0.,0.));
#141=DIRECTION('',(-0.86602540378444,-1.06057523872491E-16,-0.499999999999998));
#142=DIRECTION('center_axis',(0.,0.,1.));
#143=DIRECTION('ref_axis',(1.,0.,0.));
#144=DIRECTION('center_axis',(0.,0.,1.));
#145=DIRECTION('ref_axis',(1.,0.,0.));
#146=DIRECTION('center_axis',(0.,0.,1.));
#147=DIRECTION('ref_axis',(1.,0.,0.));
#148=DIRECTION('center_axis',(0.,0.,1.));
#149=DIRECTION('ref_axis',(1.,0.,0.));
#150=DIRECTION('',(0.,0.,-1.));
#151=DIRECTION('center_axis',(0.,0.,1.));
#152=DIRECTION('ref_axis',(1.,0.,0.));
#153=DIRECTION('center_axis',(0.,0.,-1.));
#154=DIRECTION('ref_axis',(1.,0.,0.));
#155=DIRECTION('center_axis',(0.,0.,1.));
#156=DIRECTION('ref_axis',(1.,0.,0.));
#157=DIRECTION('',(-0.707106781186548,-8.65956056235494E-17,-0.707106781186547));
#158=DIRECTION('center_axis',(0.,0.,-1.));
#159=DIRECTION('ref_axis',(1.,0.,0.));
#160=DIRECTION('center_axis',(0.,0.,1.));
#161=DIRECTION('ref_axis',(1.,0.,0.));
#162=DIRECTION('center_axis',(0.,0.,-1.));
#163=DIRECTION('ref_axis',(1.,0.,0.));
#164=DIRECTION('',(0.,0.,-1.));
#165=DIRECTION('center_axis',(0.,0.,1.));
#166=DIRECTION('ref_axis',(1.,0.,0.));
#167=DIRECTION('center_axis',(0.,0.,1.));
#168=DIRECTION('ref_axis',(1.,0.,0.));
#169=DIRECTION('',(0.707106781186549,8.65956056235495E-17,-0.707106781186546));
#170=CARTESIAN_POINT('',(0.,0.,0.));
#171=CARTESIAN_POINT('Origin',(0.,0.,64.4226497308104));
#172=CARTESIAN_POINT('',(-32.,3.91886975727153E-15,65.));
#173=CARTESIAN_POINT('Origin',(0.,0.,65.));
#174=CARTESIAN_POINT('',(-34.,-4.163799117101E-15,63.8452994616208));
#175=CARTESIAN_POINT('',(-33.,-4.04133443718627E-15,64.4226497308104));
#176=CARTESIAN_POINT('Origin',(0.,0.,63.8452994616208));
#177=CARTESIAN_POINT('Origin',(0.,0.,65.));
#178=CARTESIAN_POINT('',(-26.,-3.18408167778312E-15,65.));
#179=CARTESIAN_POINT('Origin',(0.,0.,65.));
#180=CARTESIAN_POINT('Origin',(0.,0.,0.));
#181=CARTESIAN_POINT('',(-34.,-4.163799117101E-15,0.));
#182=CARTESIAN_POINT('',(-34.,-4.163799117101E-15,0.));
#183=CARTESIAN_POINT('Origin',(0.,0.,0.));
#184=CARTESIAN_POINT('Origin',(0.,0.,1.));
#185=CARTESIAN_POINT('',(-25.,-3.06161699786838E-15,2.));
#186=CARTESIAN_POINT('Origin',(0.,0.,2.));
#187=CARTESIAN_POINT('',(-27.,3.30654635769785E-15,0.));
#188=CARTESIAN_POINT('',(-26.,-3.18408167778312E-15,1.));
#189=CARTESIAN_POINT('Origin',(0.,0.,0.));
#190=CARTESIAN_POINT('Origin',(0.,0.,0.));
#191=CARTESIAN_POINT('',(-25.,3.06161699786838E-15,64.));
#192=CARTESIAN_POINT('Origin',(0.,0.,64.));
#193=CARTESIAN_POINT('',(-25.,-3.06161699786838E-15,0.));
#194=CARTESIAN_POINT('Origin',(0.,0.,0.));
#195=CARTESIAN_POINT('Origin',(0.,0.,64.5));
#196=CARTESIAN_POINT('',(-25.5,-3.12284933782575E-15,64.5));
#197=UNCERTAINTY_MEASURE_WITH_UNIT(LENGTH_MEASURE(0.01),#201,
'DISTANCE_ACCURACY_VALUE',
'Maximum model space distance between geometric entities at asserted c
onnectivities');
#198=UNCERTAINTY_MEASURE_WITH_UNIT(LENGTH_MEASURE(0.01),#201,
'DISTANCE_ACCURACY_VALUE',
'Maximum model space distance between geometric entities at asserted c
onnectivities');
#199=(
GEOMETRIC_REPRESENTATION_CONTEXT(3)
GLOBAL_UNCERTAINTY_ASSIGNED_CONTEXT((#197))
GLOBAL_UNIT_ASSIGNED_CONTEXT((#201,#203,#204))
REPRESENTATION_CONTEXT('','3D')
);
#200=(
GEOMETRIC_REPRESENTATION_CONTEXT(3)
GLOBAL_UNCERTAINTY_ASSIGNED_CONTEXT((#198))
GLOBAL_UNIT_ASSIGNED_CONTEXT((#201,#203,#204))
REPRESENTATION_CONTEXT('','3D')
);
#201=(
LENGTH_UNIT()
NAMED_UNIT(*)
SI_UNIT(.MILLI.,.METRE.)
);
#202=(
LENGTH_UNIT()
NAMED_UNIT(*)
SI_UNIT($,.METRE.)
);
#203=(
NAMED_UNIT(*)
PLANE_ANGLE_UNIT()
SI_UNIT($,.RADIAN.)
);
#204=(
NAMED_UNIT(*)
SI_UNIT($,.STERADIAN.)
SOLID_ANGLE_UNIT()
);
#205=SHAPE_DEFINITION_REPRESENTATION(#206,#207);
#206=PRODUCT_DEFINITION_SHAPE('',$,#209);
#207=SHAPE_REPRESENTATION('',(#120),#199);
#208=PRODUCT_DEFINITION_CONTEXT('part definition',#213,'design');
#209=PRODUCT_DEFINITION('bague inf\X\E9rieur safran',
'bague inf\X\E9rieur safran v1',#210,#208);
#210=PRODUCT_DEFINITION_FORMATION('',$,#215);
#211=PRODUCT_RELATED_PRODUCT_CATEGORY('bague inf\X\E9rieur safran v1',
'bague inf\X\E9rieur safran v1',(#215));
#212=APPLICATION_PROTOCOL_DEFINITION('international standard',
'automotive_design',2009,#213);
#213=APPLICATION_CONTEXT(
'Core Data for Automotive Mechanical Design Process');
#214=PRODUCT_CONTEXT('part definition',#213,'mechanical');
#215=PRODUCT('bague inf\X\E9rieur safran','bague inf\X\E9rieur safran 
v1',$,(#214));
#216=PRESENTATION_STYLE_ASSIGNMENT((#217));
#217=SURFACE_STYLE_USAGE(.BOTH.,#218);
#218=SURFACE_SIDE_STYLE('',(#219));
#219=SURFACE_STYLE_FILL_AREA(#220);
#220=FILL_AREA_STYLE('Acier - Satin\X\E9',(#221));
#221=FILL_AREA_STYLE_COLOUR('Acier - Satin\X\E9',#222);
#222=COLOUR_RGB('Acier - Satin\X\E9',0.627450980392157,0.627450980392157,
0.627450980392157);
ENDSEC;
END-ISO-10303-21;
