ISO-10303-21;
HEADER;
/* Generated by software containing ST-Developer
 * from STEP Tools, Inc. (www.steptools.com) 
 */
/* OPTION: using custom renumber hook */

FILE_DESCRIPTION(
/* description */ ('STEP AP242',
'CAx-IF Rec.Pracs.---Representation and Presentation of Product Manufa
cturing Information (PMI)---4.0---2014-10-13',
'CAx-IF Rec.Pracs.---3D Tessellated Geometry---0.4---2014-09-14','2;1'),

/* implementation_level */ '2;1');

FILE_NAME(
/* name */ '661414abc53355631cdfd76f',
/* time_stamp */ '2024-04-08T16:00:44Z',
/* author */ (''),
/* organization */ (''),
/* preprocessor_version */ 'ST-DEVELOPER v20',
/* originating_system */ '  ',
/* authorisation */ '  ');

FILE_SCHEMA (('AP242_MANAGED_MODEL_BASED_3D_ENGINEERING_MIM_LF { 1 0 10303 442 1 1 4 }'));
ENDSEC;

DATA;
#10=CONTEXT_DEPENDENT_SHAPE_REPRESENTATION(#14,#504);
#11=CONTEXT_DEPENDENT_SHAPE_REPRESENTATION(#15,#506);
#12=NEXT_ASSEMBLY_USAGE_OCCURRENCE('NAUO1','Part 3','Part 3',#507,#508,
'');
#13=NEXT_ASSEMBLY_USAGE_OCCURRENCE('NAUO2','Part 4','Part 4',#507,#509,
'');
#14=(
REPRESENTATION_RELATIONSHIP(' ',' ',#318,#317)
REPRESENTATION_RELATIONSHIP_WITH_TRANSFORMATION(#16)
SHAPE_REPRESENTATION_RELATIONSHIP()
);
#15=(
REPRESENTATION_RELATIONSHIP(' ',' ',#319,#317)
REPRESENTATION_RELATIONSHIP_WITH_TRANSFORMATION(#17)
SHAPE_REPRESENTATION_RELATIONSHIP()
);
#16=ITEM_DEFINED_TRANSFORMATION(' ',' ',#320,#331);
#17=ITEM_DEFINED_TRANSFORMATION(' ',' ',#320,#338);
#18=SHAPE_REPRESENTATION_RELATIONSHIP('','',#318,#20);
#19=SHAPE_REPRESENTATION_RELATIONSHIP('','',#319,#21);
#20=ADVANCED_BREP_SHAPE_REPRESENTATION('',(#312),#494);
#21=ADVANCED_BREP_SHAPE_REPRESENTATION('',(#313),#495);
#22=ORIENTED_EDGE('',*,*,#94,.F.);
#23=ORIENTED_EDGE('',*,*,#95,.F.);
#24=ORIENTED_EDGE('',*,*,#96,.T.);
#25=ORIENTED_EDGE('',*,*,#97,.T.);
#26=ORIENTED_EDGE('',*,*,#98,.T.);
#27=ORIENTED_EDGE('',*,*,#99,.F.);
#28=ORIENTED_EDGE('',*,*,#100,.F.);
#29=ORIENTED_EDGE('',*,*,#95,.T.);
#30=ORIENTED_EDGE('',*,*,#101,.T.);
#31=ORIENTED_EDGE('',*,*,#102,.F.);
#32=ORIENTED_EDGE('',*,*,#103,.F.);
#33=ORIENTED_EDGE('',*,*,#99,.T.);
#34=ORIENTED_EDGE('',*,*,#104,.F.);
#35=ORIENTED_EDGE('',*,*,#105,.F.);
#36=ORIENTED_EDGE('',*,*,#106,.T.);
#37=ORIENTED_EDGE('',*,*,#107,.T.);
#38=ORIENTED_EDGE('',*,*,#108,.T.);
#39=ORIENTED_EDGE('',*,*,#109,.F.);
#40=ORIENTED_EDGE('',*,*,#110,.F.);
#41=ORIENTED_EDGE('',*,*,#105,.T.);
#42=ORIENTED_EDGE('',*,*,#111,.T.);
#43=ORIENTED_EDGE('',*,*,#112,.F.);
#44=ORIENTED_EDGE('',*,*,#113,.F.);
#45=ORIENTED_EDGE('',*,*,#109,.T.);
#46=ORIENTED_EDGE('',*,*,#114,.T.);
#47=ORIENTED_EDGE('',*,*,#107,.F.);
#48=ORIENTED_EDGE('',*,*,#115,.F.);
#49=ORIENTED_EDGE('',*,*,#112,.T.);
#50=ORIENTED_EDGE('',*,*,#116,.F.);
#51=ORIENTED_EDGE('',*,*,#97,.F.);
#52=ORIENTED_EDGE('',*,*,#117,.T.);
#53=ORIENTED_EDGE('',*,*,#102,.T.);
#54=ORIENTED_EDGE('',*,*,#106,.F.);
#55=ORIENTED_EDGE('',*,*,#110,.T.);
#56=ORIENTED_EDGE('',*,*,#113,.T.);
#57=ORIENTED_EDGE('',*,*,#115,.T.);
#58=ORIENTED_EDGE('',*,*,#96,.F.);
#59=ORIENTED_EDGE('',*,*,#100,.T.);
#60=ORIENTED_EDGE('',*,*,#103,.T.);
#61=ORIENTED_EDGE('',*,*,#117,.F.);
#62=ORIENTED_EDGE('',*,*,#104,.T.);
#63=ORIENTED_EDGE('',*,*,#114,.F.);
#64=ORIENTED_EDGE('',*,*,#111,.F.);
#65=ORIENTED_EDGE('',*,*,#108,.F.);
#66=ORIENTED_EDGE('',*,*,#94,.T.);
#67=ORIENTED_EDGE('',*,*,#116,.T.);
#68=ORIENTED_EDGE('',*,*,#101,.F.);
#69=ORIENTED_EDGE('',*,*,#98,.F.);
#70=ORIENTED_EDGE('',*,*,#118,.F.);
#71=ORIENTED_EDGE('',*,*,#119,.F.);
#72=ORIENTED_EDGE('',*,*,#120,.T.);
#73=ORIENTED_EDGE('',*,*,#121,.T.);
#74=ORIENTED_EDGE('',*,*,#122,.T.);
#75=ORIENTED_EDGE('',*,*,#123,.F.);
#76=ORIENTED_EDGE('',*,*,#124,.F.);
#77=ORIENTED_EDGE('',*,*,#119,.T.);
#78=ORIENTED_EDGE('',*,*,#125,.T.);
#79=ORIENTED_EDGE('',*,*,#126,.F.);
#80=ORIENTED_EDGE('',*,*,#127,.F.);
#81=ORIENTED_EDGE('',*,*,#123,.T.);
#82=ORIENTED_EDGE('',*,*,#128,.F.);
#83=ORIENTED_EDGE('',*,*,#121,.F.);
#84=ORIENTED_EDGE('',*,*,#129,.T.);
#85=ORIENTED_EDGE('',*,*,#126,.T.);
#86=ORIENTED_EDGE('',*,*,#120,.F.);
#87=ORIENTED_EDGE('',*,*,#124,.T.);
#88=ORIENTED_EDGE('',*,*,#127,.T.);
#89=ORIENTED_EDGE('',*,*,#129,.F.);
#90=ORIENTED_EDGE('',*,*,#118,.T.);
#91=ORIENTED_EDGE('',*,*,#128,.T.);
#92=ORIENTED_EDGE('',*,*,#125,.F.);
#93=ORIENTED_EDGE('',*,*,#122,.F.);
#94=EDGE_CURVE('',#130,#131,#154,.T.);
#95=EDGE_CURVE('',#132,#130,#155,.T.);
#96=EDGE_CURVE('',#132,#133,#156,.T.);
#97=EDGE_CURVE('',#133,#131,#157,.T.);
#98=EDGE_CURVE('',#130,#134,#158,.T.);
#99=EDGE_CURVE('',#135,#134,#159,.T.);
#100=EDGE_CURVE('',#132,#135,#160,.T.);
#101=EDGE_CURVE('',#134,#136,#161,.T.);
#102=EDGE_CURVE('',#137,#136,#162,.T.);
#103=EDGE_CURVE('',#135,#137,#163,.T.);
#104=EDGE_CURVE('',#138,#139,#164,.T.);
#105=EDGE_CURVE('',#140,#138,#165,.T.);
#106=EDGE_CURVE('',#140,#141,#166,.T.);
#107=EDGE_CURVE('',#141,#139,#167,.T.);
#108=EDGE_CURVE('',#138,#142,#168,.T.);
#109=EDGE_CURVE('',#143,#142,#169,.T.);
#110=EDGE_CURVE('',#140,#143,#170,.T.);
#111=EDGE_CURVE('',#142,#144,#171,.T.);
#112=EDGE_CURVE('',#145,#144,#172,.T.);
#113=EDGE_CURVE('',#143,#145,#173,.T.);
#114=EDGE_CURVE('',#144,#139,#174,.T.);
#115=EDGE_CURVE('',#145,#141,#175,.T.);
#116=EDGE_CURVE('',#131,#136,#176,.T.);
#117=EDGE_CURVE('',#133,#137,#177,.T.);
#118=EDGE_CURVE('',#146,#147,#178,.T.);
#119=EDGE_CURVE('',#148,#146,#179,.T.);
#120=EDGE_CURVE('',#148,#149,#180,.T.);
#121=EDGE_CURVE('',#149,#147,#181,.T.);
#122=EDGE_CURVE('',#146,#150,#182,.T.);
#123=EDGE_CURVE('',#151,#150,#183,.T.);
#124=EDGE_CURVE('',#148,#151,#184,.T.);
#125=EDGE_CURVE('',#150,#152,#185,.T.);
#126=EDGE_CURVE('',#153,#152,#186,.T.);
#127=EDGE_CURVE('',#151,#153,#187,.T.);
#128=EDGE_CURVE('',#147,#152,#188,.T.);
#129=EDGE_CURVE('',#149,#153,#189,.T.);
#130=VERTEX_POINT('',#416);
#131=VERTEX_POINT('',#417);
#132=VERTEX_POINT('',#419);
#133=VERTEX_POINT('',#421);
#134=VERTEX_POINT('',#425);
#135=VERTEX_POINT('',#427);
#136=VERTEX_POINT('',#431);
#137=VERTEX_POINT('',#433);
#138=VERTEX_POINT('',#437);
#139=VERTEX_POINT('',#438);
#140=VERTEX_POINT('',#440);
#141=VERTEX_POINT('',#442);
#142=VERTEX_POINT('',#446);
#143=VERTEX_POINT('',#448);
#144=VERTEX_POINT('',#452);
#145=VERTEX_POINT('',#454);
#146=VERTEX_POINT('',#467);
#147=VERTEX_POINT('',#468);
#148=VERTEX_POINT('',#470);
#149=VERTEX_POINT('',#472);
#150=VERTEX_POINT('',#476);
#151=VERTEX_POINT('',#478);
#152=VERTEX_POINT('',#482);
#153=VERTEX_POINT('',#484);
#154=LINE('',#415,#190);
#155=LINE('',#418,#191);
#156=LINE('',#420,#192);
#157=LINE('',#422,#193);
#158=LINE('',#424,#194);
#159=LINE('',#426,#195);
#160=LINE('',#428,#196);
#161=LINE('',#430,#197);
#162=LINE('',#432,#198);
#163=LINE('',#434,#199);
#164=LINE('',#436,#200);
#165=LINE('',#439,#201);
#166=LINE('',#441,#202);
#167=LINE('',#443,#203);
#168=LINE('',#445,#204);
#169=LINE('',#447,#205);
#170=LINE('',#449,#206);
#171=LINE('',#451,#207);
#172=LINE('',#453,#208);
#173=LINE('',#455,#209);
#174=LINE('',#457,#210);
#175=LINE('',#458,#211);
#176=LINE('',#460,#212);
#177=LINE('',#461,#213);
#178=LINE('',#466,#214);
#179=LINE('',#469,#215);
#180=LINE('',#471,#216);
#181=LINE('',#473,#217);
#182=LINE('',#475,#218);
#183=LINE('',#477,#219);
#184=LINE('',#479,#220);
#185=LINE('',#481,#221);
#186=LINE('',#483,#222);
#187=LINE('',#485,#223);
#188=LINE('',#487,#224);
#189=LINE('',#488,#225);
#190=VECTOR('',#343,1.);
#191=VECTOR('',#344,1.);
#192=VECTOR('',#345,1.);
#193=VECTOR('',#346,1.);
#194=VECTOR('',#349,1.);
#195=VECTOR('',#350,1.);
#196=VECTOR('',#351,1.);
#197=VECTOR('',#354,1.);
#198=VECTOR('',#355,1.);
#199=VECTOR('',#356,1.);
#200=VECTOR('',#359,1.);
#201=VECTOR('',#360,1.);
#202=VECTOR('',#361,1.);
#203=VECTOR('',#362,1.);
#204=VECTOR('',#365,1.);
#205=VECTOR('',#366,1.);
#206=VECTOR('',#367,1.);
#207=VECTOR('',#370,1.);
#208=VECTOR('',#371,1.);
#209=VECTOR('',#372,1.);
#210=VECTOR('',#375,1.);
#211=VECTOR('',#376,1.);
#212=VECTOR('',#379,1.);
#213=VECTOR('',#380,1.);
#214=VECTOR('',#389,1.);
#215=VECTOR('',#390,1.);
#216=VECTOR('',#391,1.);
#217=VECTOR('',#392,1.);
#218=VECTOR('',#395,1.);
#219=VECTOR('',#396,1.);
#220=VECTOR('',#397,1.);
#221=VECTOR('',#400,1.);
#222=VECTOR('',#401,1.);
#223=VECTOR('',#402,1.);
#224=VECTOR('',#405,1.);
#225=VECTOR('',#406,1.);
#226=EDGE_LOOP('',(#22,#23,#24,#25));
#227=EDGE_LOOP('',(#26,#27,#28,#29));
#228=EDGE_LOOP('',(#30,#31,#32,#33));
#229=EDGE_LOOP('',(#34,#35,#36,#37));
#230=EDGE_LOOP('',(#38,#39,#40,#41));
#231=EDGE_LOOP('',(#42,#43,#44,#45));
#232=EDGE_LOOP('',(#46,#47,#48,#49));
#233=EDGE_LOOP('',(#50,#51,#52,#53));
#234=EDGE_LOOP('',(#54,#55,#56,#57));
#235=EDGE_LOOP('',(#58,#59,#60,#61));
#236=EDGE_LOOP('',(#62,#63,#64,#65));
#237=EDGE_LOOP('',(#66,#67,#68,#69));
#238=EDGE_LOOP('',(#70,#71,#72,#73));
#239=EDGE_LOOP('',(#74,#75,#76,#77));
#240=EDGE_LOOP('',(#78,#79,#80,#81));
#241=EDGE_LOOP('',(#82,#83,#84,#85));
#242=EDGE_LOOP('',(#86,#87,#88,#89));
#243=EDGE_LOOP('',(#90,#91,#92,#93));
#244=FACE_BOUND('',#226,.T.);
#245=FACE_BOUND('',#227,.T.);
#246=FACE_BOUND('',#228,.T.);
#247=FACE_BOUND('',#229,.T.);
#248=FACE_BOUND('',#230,.T.);
#249=FACE_BOUND('',#231,.T.);
#250=FACE_BOUND('',#232,.T.);
#251=FACE_BOUND('',#233,.T.);
#252=FACE_BOUND('',#234,.T.);
#253=FACE_BOUND('',#235,.T.);
#254=FACE_BOUND('',#236,.T.);
#255=FACE_BOUND('',#237,.T.);
#256=FACE_BOUND('',#238,.T.);
#257=FACE_BOUND('',#239,.T.);
#258=FACE_BOUND('',#240,.T.);
#259=FACE_BOUND('',#241,.T.);
#260=FACE_BOUND('',#242,.T.);
#261=FACE_BOUND('',#243,.T.);
#262=PLANE('',#321);
#263=PLANE('',#322);
#264=PLANE('',#323);
#265=PLANE('',#324);
#266=PLANE('',#325);
#267=PLANE('',#326);
#268=PLANE('',#327);
#269=PLANE('',#328);
#270=PLANE('',#329);
#271=PLANE('',#330);
#272=PLANE('',#332);
#273=PLANE('',#333);
#274=PLANE('',#334);
#275=PLANE('',#335);
#276=PLANE('',#336);
#277=PLANE('',#337);
#278=ADVANCED_FACE('',(#244),#262,.T.);
#279=ADVANCED_FACE('',(#245),#263,.F.);
#280=ADVANCED_FACE('',(#246),#264,.F.);
#281=ADVANCED_FACE('',(#247),#265,.T.);
#282=ADVANCED_FACE('',(#248),#266,.F.);
#283=ADVANCED_FACE('',(#249),#267,.F.);
#284=ADVANCED_FACE('',(#250),#268,.F.);
#285=ADVANCED_FACE('',(#251),#269,.T.);
#286=ADVANCED_FACE('',(#252,#253),#270,.T.);
#287=ADVANCED_FACE('',(#254,#255),#271,.F.);
#288=ADVANCED_FACE('',(#256),#272,.T.);
#289=ADVANCED_FACE('',(#257),#273,.F.);
#290=ADVANCED_FACE('',(#258),#274,.F.);
#291=ADVANCED_FACE('',(#259),#275,.T.);
#292=ADVANCED_FACE('',(#260),#276,.T.);
#293=ADVANCED_FACE('',(#261),#277,.F.);
#294=CLOSED_SHELL('',(#278,#279,#280,#281,#282,#283,#284,#285,#286,#287));
#295=CLOSED_SHELL('',(#288,#289,#290,#291,#292,#293));
#296=STYLED_ITEM('',(#298),#312);
#297=STYLED_ITEM('',(#299),#313);
#298=PRESENTATION_STYLE_ASSIGNMENT((#300));
#299=PRESENTATION_STYLE_ASSIGNMENT((#301));
#300=SURFACE_STYLE_USAGE(.BOTH.,#302);
#301=SURFACE_STYLE_USAGE(.BOTH.,#303);
#302=SURFACE_SIDE_STYLE('',(#304));
#303=SURFACE_SIDE_STYLE('',(#305));
#304=SURFACE_STYLE_FILL_AREA(#306);
#305=SURFACE_STYLE_FILL_AREA(#307);
#306=FILL_AREA_STYLE('',(#308));
#307=FILL_AREA_STYLE('',(#309));
#308=FILL_AREA_STYLE_COLOUR('',#310);
#309=FILL_AREA_STYLE_COLOUR('',#311);
#310=COLOUR_RGB('',0.917647058823529,0.917647058823529,0.917647058823529);
#311=COLOUR_RGB('',0.768627450980392,0.886274509803922,0.952941176470588);
#312=MANIFOLD_SOLID_BREP('Part 3',#294);
#313=MANIFOLD_SOLID_BREP('Part 4',#295);
#314=SHAPE_DEFINITION_REPRESENTATION(#502,#317);
#315=SHAPE_DEFINITION_REPRESENTATION(#503,#318);
#316=SHAPE_DEFINITION_REPRESENTATION(#505,#319);
#317=SHAPE_REPRESENTATION('Assembly 1',(#320,#331,#338),#493);
#318=SHAPE_REPRESENTATION('Part 3',(#320),#494);
#319=SHAPE_REPRESENTATION('Part 4',(#320),#495);
#320=AXIS2_PLACEMENT_3D('',#413,#339,#340);
#321=AXIS2_PLACEMENT_3D('',#414,#341,#342);
#322=AXIS2_PLACEMENT_3D('',#423,#347,#348);
#323=AXIS2_PLACEMENT_3D('',#429,#352,#353);
#324=AXIS2_PLACEMENT_3D('',#435,#357,#358);
#325=AXIS2_PLACEMENT_3D('',#444,#363,#364);
#326=AXIS2_PLACEMENT_3D('',#450,#368,#369);
#327=AXIS2_PLACEMENT_3D('',#456,#373,#374);
#328=AXIS2_PLACEMENT_3D('',#459,#377,#378);
#329=AXIS2_PLACEMENT_3D('',#462,#381,#382);
#330=AXIS2_PLACEMENT_3D('',#463,#383,#384);
#331=AXIS2_PLACEMENT_3D('',#464,#385,#386);
#332=AXIS2_PLACEMENT_3D('',#465,#387,#388);
#333=AXIS2_PLACEMENT_3D('',#474,#393,#394);
#334=AXIS2_PLACEMENT_3D('',#480,#398,#399);
#335=AXIS2_PLACEMENT_3D('',#486,#403,#404);
#336=AXIS2_PLACEMENT_3D('',#489,#407,#408);
#337=AXIS2_PLACEMENT_3D('',#490,#409,#410);
#338=AXIS2_PLACEMENT_3D('',#491,#411,#412);
#339=DIRECTION('',(0.,0.,1.));
#340=DIRECTION('',(1.,0.,0.));
#341=DIRECTION('',(1.,0.,0.));
#342=DIRECTION('',(0.,0.,-1.));
#343=DIRECTION('',(0.,0.,-1.));
#344=DIRECTION('',(0.,1.,0.));
#345=DIRECTION('',(0.,0.,-1.));
#346=DIRECTION('',(0.,1.,0.));
#347=DIRECTION('',(0.,0.,1.));
#348=DIRECTION('',(1.,0.,0.));
#349=DIRECTION('',(1.,0.,0.));
#350=DIRECTION('',(0.,1.,0.));
#351=DIRECTION('',(1.,0.,0.));
#352=DIRECTION('',(1.,0.,0.));
#353=DIRECTION('',(0.,0.,-1.));
#354=DIRECTION('',(0.,0.,-1.));
#355=DIRECTION('',(0.,1.,0.));
#356=DIRECTION('',(0.,0.,-1.));
#357=DIRECTION('',(-1.,0.,0.));
#358=DIRECTION('',(0.,0.,1.));
#359=DIRECTION('',(0.,0.,1.));
#360=DIRECTION('',(0.,1.,0.));
#361=DIRECTION('',(0.,0.,1.));
#362=DIRECTION('',(0.,1.,0.));
#363=DIRECTION('',(0.,0.,1.));
#364=DIRECTION('',(1.,0.,0.));
#365=DIRECTION('',(1.,0.,0.));
#366=DIRECTION('',(0.,1.,0.));
#367=DIRECTION('',(1.,0.,0.));
#368=DIRECTION('',(-1.,0.,0.));
#369=DIRECTION('',(0.,0.,1.));
#370=DIRECTION('',(0.,0.,1.));
#371=DIRECTION('',(0.,1.,0.));
#372=DIRECTION('',(0.,0.,1.));
#373=DIRECTION('',(0.,0.,-1.));
#374=DIRECTION('',(-1.,0.,0.));
#375=DIRECTION('',(-1.,0.,0.));
#376=DIRECTION('',(-1.,0.,0.));
#377=DIRECTION('',(0.,0.,1.));
#378=DIRECTION('',(1.,0.,0.));
#379=DIRECTION('',(1.,0.,0.));
#380=DIRECTION('',(1.,0.,0.));
#381=DIRECTION('',(0.,-1.,0.));
#382=DIRECTION('',(1.,0.,0.));
#383=DIRECTION('',(0.,-1.,0.));
#384=DIRECTION('',(1.,0.,0.));
#385=DIRECTION('',(0.,0.,1.));
#386=DIRECTION('',(1.,0.,0.));
#387=DIRECTION('',(1.,-4.08177035152729E-16,6.12323399573678E-17));
#388=DIRECTION('',(4.08177035152729E-16,1.,-3.46944695195362E-16));
#389=DIRECTION('',(4.08177035152729E-16,1.,-3.46944695195362E-16));
#390=DIRECTION('',(-6.12323399573676E-17,3.46944695195362E-16,1.));
#391=DIRECTION('',(4.08177035152729E-16,1.,-3.46944695195362E-16));
#392=DIRECTION('',(-6.12323399573676E-17,3.46944695195362E-16,1.));
#393=DIRECTION('',(4.08177035152729E-16,1.,-3.46944695195362E-16));
#394=DIRECTION('',(-1.,4.08177035152729E-16,-6.12323399573678E-17));
#395=DIRECTION('',(-1.,4.08177035152729E-16,-6.12323399573678E-17));
#396=DIRECTION('',(-6.12323399573676E-17,3.46944695195362E-16,1.));
#397=DIRECTION('',(-1.,4.08177035152729E-16,-6.12323399573678E-17));
#398=DIRECTION('',(1.,-4.08177035152729E-16,6.12323399573678E-17));
#399=DIRECTION('',(4.08177035152729E-16,1.,-3.46944695195362E-16));
#400=DIRECTION('',(4.08177035152729E-16,1.,-3.46944695195362E-16));
#401=DIRECTION('',(-6.12323399573676E-17,3.46944695195362E-16,1.));
#402=DIRECTION('',(4.08177035152729E-16,1.,-3.46944695195362E-16));
#403=DIRECTION('',(4.08177035152729E-16,1.,-3.46944695195362E-16));
#404=DIRECTION('',(-1.,4.08177035152729E-16,-6.12323399573678E-17));
#405=DIRECTION('',(-1.,4.08177035152729E-16,-6.12323399573678E-17));
#406=DIRECTION('',(-1.,4.08177035152729E-16,-6.12323399573678E-17));
#407=DIRECTION('',(6.12323399573676E-17,-3.46944695195362E-16,-1.));
#408=DIRECTION('',(4.08177035152729E-16,1.,-3.46944695195362E-16));
#409=DIRECTION('',(6.12323399573676E-17,-3.46944695195362E-16,-1.));
#410=DIRECTION('',(4.08177035152729E-16,1.,-3.46944695195362E-16));
#411=DIRECTION('',(0.,0.,1.));
#412=DIRECTION('',(1.,0.,0.));
#413=CARTESIAN_POINT('',(0.,0.,0.));
#414=CARTESIAN_POINT('',(-0.0531465522944927,-0.002,-0.0527068982422352));
#415=CARTESIAN_POINT('',(-0.0531465522944927,0.,-0.0527068982422352));
#416=CARTESIAN_POINT('',(-0.0531465522944927,0.,-0.0467068982422352));
#417=CARTESIAN_POINT('',(-0.0531465522944927,0.,-0.0587068982422352));
#418=CARTESIAN_POINT('',(-0.0531465522944927,-0.002,-0.0467068982422352));
#419=CARTESIAN_POINT('',(-0.0531465522944927,-0.002,-0.0467068982422352));
#420=CARTESIAN_POINT('',(-0.0531465522944927,-0.002,-0.0527068982422352));
#421=CARTESIAN_POINT('',(-0.0531465522944927,-0.002,-0.0587068982422352));
#422=CARTESIAN_POINT('',(-0.0531465522944927,-0.002,-0.0587068982422352));
#423=CARTESIAN_POINT('',(-0.0496465522944927,-0.002,-0.0467068982422352));
#424=CARTESIAN_POINT('',(-0.0496465522944927,0.,-0.0467068982422352));
#425=CARTESIAN_POINT('',(-0.0461465522944927,0.,-0.0467068982422352));
#426=CARTESIAN_POINT('',(-0.0461465522944927,-0.002,-0.0467068982422352));
#427=CARTESIAN_POINT('',(-0.0461465522944927,-0.002,-0.0467068982422352));
#428=CARTESIAN_POINT('',(-0.0496465522944927,-0.002,-0.0467068982422352));
#429=CARTESIAN_POINT('',(-0.0461465522944927,-0.002,-0.0527068982422352));
#430=CARTESIAN_POINT('',(-0.0461465522944927,0.,-0.0527068982422352));
#431=CARTESIAN_POINT('',(-0.0461465522944927,0.,-0.0587068982422352));
#432=CARTESIAN_POINT('',(-0.0461465522944927,-0.002,-0.0587068982422352));
#433=CARTESIAN_POINT('',(-0.0461465522944927,-0.002,-0.0587068982422352));
#434=CARTESIAN_POINT('',(-0.0461465522944927,-0.002,-0.0527068982422352));
#435=CARTESIAN_POINT('',(-0.0566465522944927,-0.002,-0.0202068982422352));
#436=CARTESIAN_POINT('',(-0.0566465522944927,0.,-0.0202068982422352));
#437=CARTESIAN_POINT('',(-0.0566465522944927,0.,-0.0627068982422352));
#438=CARTESIAN_POINT('',(-0.0566465522944927,0.,0.0222931017577648));
#439=CARTESIAN_POINT('',(-0.0566465522944927,-0.002,-0.0627068982422352));
#440=CARTESIAN_POINT('',(-0.0566465522944927,-0.002,-0.0627068982422352));
#441=CARTESIAN_POINT('',(-0.0566465522944927,-0.002,-0.0202068982422352));
#442=CARTESIAN_POINT('',(-0.0566465522944927,-0.002,0.0222931017577648));
#443=CARTESIAN_POINT('',(-0.0566465522944927,-0.002,0.0222931017577648));
#444=CARTESIAN_POINT('',(-0.0491465522944927,-0.002,-0.0627068982422352));
#445=CARTESIAN_POINT('',(-0.0491465522944927,0.,-0.0627068982422352));
#446=CARTESIAN_POINT('',(-0.0416465522944927,0.,-0.0627068982422352));
#447=CARTESIAN_POINT('',(-0.0416465522944927,-0.002,-0.0627068982422352));
#448=CARTESIAN_POINT('',(-0.0416465522944927,-0.002,-0.0627068982422352));
#449=CARTESIAN_POINT('',(-0.0491465522944927,-0.002,-0.0627068982422352));
#450=CARTESIAN_POINT('',(-0.0416465522944927,-0.002,-0.0202068982422352));
#451=CARTESIAN_POINT('',(-0.0416465522944927,0.,-0.0202068982422352));
#452=CARTESIAN_POINT('',(-0.0416465522944927,0.,0.0222931017577648));
#453=CARTESIAN_POINT('',(-0.0416465522944927,-0.002,0.0222931017577648));
#454=CARTESIAN_POINT('',(-0.0416465522944927,-0.002,0.0222931017577648));
#455=CARTESIAN_POINT('',(-0.0416465522944927,-0.002,-0.0202068982422352));
#456=CARTESIAN_POINT('',(-0.0491465522944927,-0.002,0.0222931017577648));
#457=CARTESIAN_POINT('',(-0.0491465522944927,0.,0.0222931017577648));
#458=CARTESIAN_POINT('',(-0.0491465522944927,-0.002,0.0222931017577648));
#459=CARTESIAN_POINT('',(-0.0496465522944927,-0.002,-0.0587068982422352));
#460=CARTESIAN_POINT('',(-0.0496465522944927,0.,-0.0587068982422352));
#461=CARTESIAN_POINT('',(-0.0496465522944927,-0.002,-0.0587068982422352));
#462=CARTESIAN_POINT('',(-0.0491465522944927,-0.002,-0.0202068982422352));
#463=CARTESIAN_POINT('',(-0.0491465522944927,0.,-0.0202068982422352));
#464=CARTESIAN_POINT('',(0.0849262321371963,0.0302148944202743,-0.0487677416019466));
#465=CARTESIAN_POINT('',(0.0813965521838139,0.027,0.0496120699495077));
#466=CARTESIAN_POINT('',(0.0813965521838139,0.027,0.0526120699495077));
#467=CARTESIAN_POINT('',(0.0813965521838139,0.017,0.0526120699495077));
#468=CARTESIAN_POINT('',(0.0813965521838139,0.037,0.0526120699495077));
#469=CARTESIAN_POINT('',(0.0813965521838139,0.017,0.0496120699495077));
#470=CARTESIAN_POINT('',(0.0813965521838139,0.017,0.0496120699495077));
#471=CARTESIAN_POINT('',(0.0813965521838139,0.027,0.0496120699495077));
#472=CARTESIAN_POINT('',(0.0813965521838139,0.037,0.0496120699495077));
#473=CARTESIAN_POINT('',(0.0813965521838139,0.037,0.0496120699495077));
#474=CARTESIAN_POINT('',(0.0613965521838139,0.017,0.0496120699495077));
#475=CARTESIAN_POINT('',(0.0613965521838139,0.017,0.0526120699495077));
#476=CARTESIAN_POINT('',(0.0413965521838139,0.017,0.0526120699495077));
#477=CARTESIAN_POINT('',(0.0413965521838139,0.017,0.0496120699495077));
#478=CARTESIAN_POINT('',(0.0413965521838139,0.017,0.0496120699495077));
#479=CARTESIAN_POINT('',(0.0613965521838139,0.017,0.0496120699495077));
#480=CARTESIAN_POINT('',(0.0413965521838139,0.027,0.0496120699495077));
#481=CARTESIAN_POINT('',(0.0413965521838139,0.027,0.0526120699495077));
#482=CARTESIAN_POINT('',(0.0413965521838139,0.037,0.0526120699495077));
#483=CARTESIAN_POINT('',(0.0413965521838139,0.037,0.0496120699495077));
#484=CARTESIAN_POINT('',(0.0413965521838139,0.037,0.0496120699495077));
#485=CARTESIAN_POINT('',(0.0413965521838139,0.027,0.0496120699495077));
#486=CARTESIAN_POINT('',(0.0613965521838139,0.037,0.0496120699495077));
#487=CARTESIAN_POINT('',(0.0613965521838139,0.037,0.0526120699495077));
#488=CARTESIAN_POINT('',(0.0613965521838139,0.037,0.0496120699495077));
#489=CARTESIAN_POINT('',(0.0613965521838139,0.027,0.0496120699495077));
#490=CARTESIAN_POINT('',(0.0613965521838139,0.027,0.0526120699495077));
#491=CARTESIAN_POINT('',(-0.0260753644682074,0.00186532480870642,-0.0760043187743438));
#492=MECHANICAL_DESIGN_GEOMETRIC_PRESENTATION_REPRESENTATION('',(#296,#297),
#493);
#493=(
GEOMETRIC_REPRESENTATION_CONTEXT(3)
GLOBAL_UNCERTAINTY_ASSIGNED_CONTEXT((#496))
GLOBAL_UNIT_ASSIGNED_CONTEXT((#501,#500,#499))
REPRESENTATION_CONTEXT('Assembly 1','TOP_LEVEL_ASSEMBLY_PART')
);
#494=(
GEOMETRIC_REPRESENTATION_CONTEXT(3)
GLOBAL_UNCERTAINTY_ASSIGNED_CONTEXT((#497))
GLOBAL_UNIT_ASSIGNED_CONTEXT((#501,#500,#499))
REPRESENTATION_CONTEXT('Part 3','COMPONENT_PART')
);
#495=(
GEOMETRIC_REPRESENTATION_CONTEXT(3)
GLOBAL_UNCERTAINTY_ASSIGNED_CONTEXT((#498))
GLOBAL_UNIT_ASSIGNED_CONTEXT((#501,#500,#499))
REPRESENTATION_CONTEXT('Part 4','COMPONENT_PART')
);
#496=UNCERTAINTY_MEASURE_WITH_UNIT(LENGTH_MEASURE(5.E-6),#501,
'DISTANCE_ACCURACY_VALUE','Maximum Tolerance applied to model');
#497=UNCERTAINTY_MEASURE_WITH_UNIT(LENGTH_MEASURE(5.E-6),#501,
'DISTANCE_ACCURACY_VALUE','Maximum Tolerance applied to model');
#498=UNCERTAINTY_MEASURE_WITH_UNIT(LENGTH_MEASURE(5.E-6),#501,
'DISTANCE_ACCURACY_VALUE','Maximum Tolerance applied to model');
#499=(
NAMED_UNIT(*)
SI_UNIT($,.STERADIAN.)
SOLID_ANGLE_UNIT()
);
#500=(
NAMED_UNIT(*)
PLANE_ANGLE_UNIT()
SI_UNIT($,.RADIAN.)
);
#501=(
LENGTH_UNIT()
NAMED_UNIT(*)
SI_UNIT($,.METRE.)
);
#502=PRODUCT_DEFINITION_SHAPE('','',#507);
#503=PRODUCT_DEFINITION_SHAPE('','',#508);
#504=PRODUCT_DEFINITION_SHAPE(' ','NAUO PRDDFN',#12);
#505=PRODUCT_DEFINITION_SHAPE('','',#509);
#506=PRODUCT_DEFINITION_SHAPE(' ','NAUO PRDDFN',#13);
#507=PRODUCT_DEFINITION('','',#513,#510);
#508=PRODUCT_DEFINITION('','',#514,#511);
#509=PRODUCT_DEFINITION('','',#515,#512);
#510=PRODUCT_DEFINITION_CONTEXT('',#529,'design');
#511=PRODUCT_DEFINITION_CONTEXT('',#529,'design');
#512=PRODUCT_DEFINITION_CONTEXT('',#529,'design');
#513=PRODUCT_DEFINITION_FORMATION_WITH_SPECIFIED_SOURCE('','',#519,
 .NOT_KNOWN.);
#514=PRODUCT_DEFINITION_FORMATION_WITH_SPECIFIED_SOURCE('','',#520,
 .NOT_KNOWN.);
#515=PRODUCT_DEFINITION_FORMATION_WITH_SPECIFIED_SOURCE('','',#521,
 .NOT_KNOWN.);
#516=PRODUCT_RELATED_PRODUCT_CATEGORY('','',(#519));
#517=PRODUCT_RELATED_PRODUCT_CATEGORY('','',(#520));
#518=PRODUCT_RELATED_PRODUCT_CATEGORY('','',(#521));
#519=PRODUCT('Assembly 1','Assembly 1','Assembly 1',(#525));
#520=PRODUCT('Part 3','Part 3','Part 3',(#526));
#521=PRODUCT('Part 4','Part 4','Part 4',(#527));
#522=PRODUCT_CATEGORY('','');
#523=PRODUCT_CATEGORY('','');
#524=PRODUCT_CATEGORY('','');
#525=PRODUCT_CONTEXT('',#529,'mechanical');
#526=PRODUCT_CONTEXT('',#529,'mechanical');
#527=PRODUCT_CONTEXT('',#529,'mechanical');
#528=APPLICATION_PROTOCOL_DEFINITION('international standard',
'ap242_managed_model_based_3d_engineering',2011,#529);
#529=APPLICATION_CONTEXT('managed model based 3d engineering');
ENDSEC;
END-ISO-10303-21;
