ISO-10303-21;
HEADER;
/* Generated by software containing ST-Developer
 * from STEP Tools, Inc. (www.steptools.com) 
 */

FILE_DESCRIPTION(
/* description */ (''),
/* implementation_level */ '2;1');

FILE_NAME(
/* name */ 'Poids milieu chassis hybride.step',
/* time_stamp */ '2024-04-28T21:27:26+01:00',
/* author */ (''),
/* organization */ (''),
/* preprocessor_version */ 'ST-DEVELOPER v20',
/* originating_system */ 'Autodesk Translation Framework v12.20.1.177',

/* authorisation */ '');

FILE_SCHEMA (('AUTOMOTIVE_DESIGN { 1 0 10303 214 3 1 1 }'));
ENDSEC;

DATA;
#10=MECHANICAL_DESIGN_GEOMETRIC_PRESENTATION_REPRESENTATION('',(#13),#605);
#11=SHAPE_REPRESENTATION_RELATIONSHIP('SRR','None',#612,#12);
#12=ADVANCED_BREP_SHAPE_REPRESENTATION('',(#14),#604);
#13=STYLED_ITEM('',(#624),#14);
#14=MANIFOLD_SOLID_BREP('Corps10',#349);
#15=FACE_BOUND('',#49,.T.);
#16=CYLINDRICAL_SURFACE('',#375,2.);
#17=CYLINDRICAL_SURFACE('',#385,2.);
#18=CYLINDRICAL_SURFACE('',#387,2.);
#19=CYLINDRICAL_SURFACE('',#389,2.);
#20=CYLINDRICAL_SURFACE('',#391,1.);
#21=CYLINDRICAL_SURFACE('',#393,1.);
#22=CYLINDRICAL_SURFACE('',#395,1.);
#23=CYLINDRICAL_SURFACE('',#397,1.);
#24=FACE_OUTER_BOUND('',#43,.T.);
#25=FACE_OUTER_BOUND('',#44,.T.);
#26=FACE_OUTER_BOUND('',#45,.T.);
#27=FACE_OUTER_BOUND('',#46,.T.);
#28=FACE_OUTER_BOUND('',#47,.T.);
#29=FACE_OUTER_BOUND('',#48,.T.);
#30=FACE_OUTER_BOUND('',#50,.T.);
#31=FACE_OUTER_BOUND('',#51,.T.);
#32=FACE_OUTER_BOUND('',#52,.T.);
#33=FACE_OUTER_BOUND('',#53,.T.);
#34=FACE_OUTER_BOUND('',#54,.T.);
#35=FACE_OUTER_BOUND('',#55,.T.);
#36=FACE_OUTER_BOUND('',#56,.T.);
#37=FACE_OUTER_BOUND('',#57,.T.);
#38=FACE_OUTER_BOUND('',#58,.T.);
#39=FACE_OUTER_BOUND('',#59,.T.);
#40=FACE_OUTER_BOUND('',#60,.T.);
#41=FACE_OUTER_BOUND('',#61,.T.);
#42=FACE_OUTER_BOUND('',#62,.T.);
#43=EDGE_LOOP('',(#223,#224,#225,#226,#227,#228,#229,#230));
#44=EDGE_LOOP('',(#231,#232,#233,#234,#235,#236,#237,#238));
#45=EDGE_LOOP('',(#239,#240,#241,#242));
#46=EDGE_LOOP('',(#243,#244,#245,#246));
#47=EDGE_LOOP('',(#247,#248,#249,#250));
#48=EDGE_LOOP('',(#251,#252,#253,#254,#255,#256,#257,#258));
#49=EDGE_LOOP('',(#259,#260,#261,#262,#263,#264,#265,#266));
#50=EDGE_LOOP('',(#267,#268,#269,#270));
#51=EDGE_LOOP('',(#271,#272,#273,#274));
#52=EDGE_LOOP('',(#275,#276,#277,#278));
#53=EDGE_LOOP('',(#279,#280,#281,#282));
#54=EDGE_LOOP('',(#283,#284,#285,#286));
#55=EDGE_LOOP('',(#287,#288,#289,#290));
#56=EDGE_LOOP('',(#291,#292,#293,#294));
#57=EDGE_LOOP('',(#295,#296,#297,#298));
#58=EDGE_LOOP('',(#299,#300,#301,#302));
#59=EDGE_LOOP('',(#303,#304,#305,#306));
#60=EDGE_LOOP('',(#307,#308,#309,#310));
#61=EDGE_LOOP('',(#311,#312,#313,#314));
#62=EDGE_LOOP('',(#315,#316,#317,#318));
#63=LINE('',#508,#95);
#64=LINE('',#512,#96);
#65=LINE('',#516,#97);
#66=LINE('',#519,#98);
#67=LINE('',#525,#99);
#68=LINE('',#529,#100);
#69=LINE('',#533,#101);
#70=LINE('',#536,#102);
#71=LINE('',#539,#103);
#72=LINE('',#541,#104);
#73=LINE('',#542,#105);
#74=LINE('',#545,#106);
#75=LINE('',#547,#107);
#76=LINE('',#548,#108);
#77=LINE('',#552,#109);
#78=LINE('',#557,#110);
#79=LINE('',#561,#111);
#80=LINE('',#564,#112);
#81=LINE('',#568,#113);
#82=LINE('',#572,#114);
#83=LINE('',#576,#115);
#84=LINE('',#579,#116);
#85=LINE('',#581,#117);
#86=LINE('',#584,#118);
#87=LINE('',#587,#119);
#88=LINE('',#588,#120);
#89=LINE('',#590,#121);
#90=LINE('',#592,#122);
#91=LINE('',#593,#123);
#92=LINE('',#596,#124);
#93=LINE('',#597,#125);
#94=LINE('',#600,#126);
#95=VECTOR('',#404,10.);
#96=VECTOR('',#407,10.);
#97=VECTOR('',#410,10.);
#98=VECTOR('',#413,10.);
#99=VECTOR('',#418,10.);
#100=VECTOR('',#421,10.);
#101=VECTOR('',#424,10.);
#102=VECTOR('',#427,10.);
#103=VECTOR('',#430,10.);
#104=VECTOR('',#431,10.);
#105=VECTOR('',#432,10.);
#106=VECTOR('',#435,10.);
#107=VECTOR('',#436,10.);
#108=VECTOR('',#437,10.);
#109=VECTOR('',#442,10.);
#110=VECTOR('',#447,10.);
#111=VECTOR('',#452,10.);
#112=VECTOR('',#453,10.);
#113=VECTOR('',#456,10.);
#114=VECTOR('',#459,10.);
#115=VECTOR('',#462,10.);
#116=VECTOR('',#467,10.);
#117=VECTOR('',#470,10.);
#118=VECTOR('',#475,10.);
#119=VECTOR('',#480,10.);
#120=VECTOR('',#481,10.);
#121=VECTOR('',#484,10.);
#122=VECTOR('',#487,10.);
#123=VECTOR('',#488,10.);
#124=VECTOR('',#493,10.);
#125=VECTOR('',#494,10.);
#126=VECTOR('',#499,10.);
#127=CIRCLE('',#364,2.);
#128=CIRCLE('',#365,2.);
#129=CIRCLE('',#366,2.);
#130=CIRCLE('',#367,2.);
#131=CIRCLE('',#369,1.);
#132=CIRCLE('',#370,1.);
#133=CIRCLE('',#371,1.);
#134=CIRCLE('',#372,1.);
#135=CIRCLE('',#376,2.);
#136=CIRCLE('',#378,2.);
#137=CIRCLE('',#379,2.);
#138=CIRCLE('',#380,2.);
#139=CIRCLE('',#381,1.);
#140=CIRCLE('',#382,1.);
#141=CIRCLE('',#383,1.);
#142=CIRCLE('',#384,1.);
#143=VERTEX_POINT('',#504);
#144=VERTEX_POINT('',#505);
#145=VERTEX_POINT('',#507);
#146=VERTEX_POINT('',#509);
#147=VERTEX_POINT('',#511);
#148=VERTEX_POINT('',#513);
#149=VERTEX_POINT('',#515);
#150=VERTEX_POINT('',#517);
#151=VERTEX_POINT('',#521);
#152=VERTEX_POINT('',#522);
#153=VERTEX_POINT('',#524);
#154=VERTEX_POINT('',#526);
#155=VERTEX_POINT('',#528);
#156=VERTEX_POINT('',#530);
#157=VERTEX_POINT('',#532);
#158=VERTEX_POINT('',#534);
#159=VERTEX_POINT('',#538);
#160=VERTEX_POINT('',#540);
#161=VERTEX_POINT('',#544);
#162=VERTEX_POINT('',#546);
#163=VERTEX_POINT('',#550);
#164=VERTEX_POINT('',#554);
#165=VERTEX_POINT('',#556);
#166=VERTEX_POINT('',#559);
#167=VERTEX_POINT('',#562);
#168=VERTEX_POINT('',#563);
#169=VERTEX_POINT('',#565);
#170=VERTEX_POINT('',#567);
#171=VERTEX_POINT('',#569);
#172=VERTEX_POINT('',#571);
#173=VERTEX_POINT('',#573);
#174=VERTEX_POINT('',#575);
#175=EDGE_CURVE('',#143,#144,#127,.T.);
#176=EDGE_CURVE('',#144,#145,#63,.T.);
#177=EDGE_CURVE('',#145,#146,#128,.T.);
#178=EDGE_CURVE('',#146,#147,#64,.T.);
#179=EDGE_CURVE('',#147,#148,#129,.T.);
#180=EDGE_CURVE('',#148,#149,#65,.T.);
#181=EDGE_CURVE('',#149,#150,#130,.T.);
#182=EDGE_CURVE('',#150,#143,#66,.T.);
#183=EDGE_CURVE('',#151,#152,#131,.T.);
#184=EDGE_CURVE('',#152,#153,#67,.T.);
#185=EDGE_CURVE('',#153,#154,#132,.T.);
#186=EDGE_CURVE('',#154,#155,#68,.T.);
#187=EDGE_CURVE('',#155,#156,#133,.T.);
#188=EDGE_CURVE('',#156,#157,#69,.T.);
#189=EDGE_CURVE('',#157,#158,#134,.T.);
#190=EDGE_CURVE('',#158,#151,#70,.T.);
#191=EDGE_CURVE('',#144,#159,#71,.T.);
#192=EDGE_CURVE('',#160,#159,#72,.T.);
#193=EDGE_CURVE('',#160,#145,#73,.T.);
#194=EDGE_CURVE('',#148,#161,#74,.T.);
#195=EDGE_CURVE('',#162,#161,#75,.T.);
#196=EDGE_CURVE('',#162,#149,#76,.T.);
#197=EDGE_CURVE('',#162,#163,#135,.T.);
#198=EDGE_CURVE('',#150,#163,#77,.T.);
#199=EDGE_CURVE('',#164,#161,#136,.T.);
#200=EDGE_CURVE('',#164,#165,#78,.T.);
#201=EDGE_CURVE('',#160,#165,#137,.T.);
#202=EDGE_CURVE('',#166,#159,#138,.T.);
#203=EDGE_CURVE('',#166,#163,#79,.T.);
#204=EDGE_CURVE('',#167,#168,#80,.T.);
#205=EDGE_CURVE('',#167,#169,#139,.T.);
#206=EDGE_CURVE('',#170,#169,#81,.T.);
#207=EDGE_CURVE('',#170,#171,#140,.T.);
#208=EDGE_CURVE('',#172,#171,#82,.T.);
#209=EDGE_CURVE('',#172,#173,#141,.T.);
#210=EDGE_CURVE('',#174,#173,#83,.T.);
#211=EDGE_CURVE('',#174,#168,#142,.T.);
#212=EDGE_CURVE('',#146,#165,#84,.T.);
#213=EDGE_CURVE('',#166,#143,#85,.T.);
#214=EDGE_CURVE('',#164,#147,#86,.T.);
#215=EDGE_CURVE('',#152,#170,#87,.T.);
#216=EDGE_CURVE('',#169,#153,#88,.T.);
#217=EDGE_CURVE('',#154,#167,#89,.T.);
#218=EDGE_CURVE('',#158,#172,#90,.T.);
#219=EDGE_CURVE('',#171,#151,#91,.T.);
#220=EDGE_CURVE('',#156,#174,#92,.T.);
#221=EDGE_CURVE('',#173,#157,#93,.T.);
#222=EDGE_CURVE('',#168,#155,#94,.T.);
#223=ORIENTED_EDGE('',*,*,#175,.T.);
#224=ORIENTED_EDGE('',*,*,#176,.T.);
#225=ORIENTED_EDGE('',*,*,#177,.T.);
#226=ORIENTED_EDGE('',*,*,#178,.T.);
#227=ORIENTED_EDGE('',*,*,#179,.T.);
#228=ORIENTED_EDGE('',*,*,#180,.T.);
#229=ORIENTED_EDGE('',*,*,#181,.T.);
#230=ORIENTED_EDGE('',*,*,#182,.T.);
#231=ORIENTED_EDGE('',*,*,#183,.T.);
#232=ORIENTED_EDGE('',*,*,#184,.T.);
#233=ORIENTED_EDGE('',*,*,#185,.T.);
#234=ORIENTED_EDGE('',*,*,#186,.T.);
#235=ORIENTED_EDGE('',*,*,#187,.T.);
#236=ORIENTED_EDGE('',*,*,#188,.T.);
#237=ORIENTED_EDGE('',*,*,#189,.T.);
#238=ORIENTED_EDGE('',*,*,#190,.T.);
#239=ORIENTED_EDGE('',*,*,#191,.T.);
#240=ORIENTED_EDGE('',*,*,#192,.F.);
#241=ORIENTED_EDGE('',*,*,#193,.T.);
#242=ORIENTED_EDGE('',*,*,#176,.F.);
#243=ORIENTED_EDGE('',*,*,#194,.T.);
#244=ORIENTED_EDGE('',*,*,#195,.F.);
#245=ORIENTED_EDGE('',*,*,#196,.T.);
#246=ORIENTED_EDGE('',*,*,#180,.F.);
#247=ORIENTED_EDGE('',*,*,#197,.T.);
#248=ORIENTED_EDGE('',*,*,#198,.F.);
#249=ORIENTED_EDGE('',*,*,#181,.F.);
#250=ORIENTED_EDGE('',*,*,#196,.F.);
#251=ORIENTED_EDGE('',*,*,#199,.F.);
#252=ORIENTED_EDGE('',*,*,#200,.T.);
#253=ORIENTED_EDGE('',*,*,#201,.F.);
#254=ORIENTED_EDGE('',*,*,#192,.T.);
#255=ORIENTED_EDGE('',*,*,#202,.F.);
#256=ORIENTED_EDGE('',*,*,#203,.T.);
#257=ORIENTED_EDGE('',*,*,#197,.F.);
#258=ORIENTED_EDGE('',*,*,#195,.T.);
#259=ORIENTED_EDGE('',*,*,#204,.F.);
#260=ORIENTED_EDGE('',*,*,#205,.T.);
#261=ORIENTED_EDGE('',*,*,#206,.F.);
#262=ORIENTED_EDGE('',*,*,#207,.T.);
#263=ORIENTED_EDGE('',*,*,#208,.F.);
#264=ORIENTED_EDGE('',*,*,#209,.T.);
#265=ORIENTED_EDGE('',*,*,#210,.F.);
#266=ORIENTED_EDGE('',*,*,#211,.T.);
#267=ORIENTED_EDGE('',*,*,#201,.T.);
#268=ORIENTED_EDGE('',*,*,#212,.F.);
#269=ORIENTED_EDGE('',*,*,#177,.F.);
#270=ORIENTED_EDGE('',*,*,#193,.F.);
#271=ORIENTED_EDGE('',*,*,#213,.T.);
#272=ORIENTED_EDGE('',*,*,#182,.F.);
#273=ORIENTED_EDGE('',*,*,#198,.T.);
#274=ORIENTED_EDGE('',*,*,#203,.F.);
#275=ORIENTED_EDGE('',*,*,#202,.T.);
#276=ORIENTED_EDGE('',*,*,#191,.F.);
#277=ORIENTED_EDGE('',*,*,#175,.F.);
#278=ORIENTED_EDGE('',*,*,#213,.F.);
#279=ORIENTED_EDGE('',*,*,#214,.T.);
#280=ORIENTED_EDGE('',*,*,#178,.F.);
#281=ORIENTED_EDGE('',*,*,#212,.T.);
#282=ORIENTED_EDGE('',*,*,#200,.F.);
#283=ORIENTED_EDGE('',*,*,#199,.T.);
#284=ORIENTED_EDGE('',*,*,#194,.F.);
#285=ORIENTED_EDGE('',*,*,#179,.F.);
#286=ORIENTED_EDGE('',*,*,#214,.F.);
#287=ORIENTED_EDGE('',*,*,#215,.T.);
#288=ORIENTED_EDGE('',*,*,#206,.T.);
#289=ORIENTED_EDGE('',*,*,#216,.T.);
#290=ORIENTED_EDGE('',*,*,#184,.F.);
#291=ORIENTED_EDGE('',*,*,#205,.F.);
#292=ORIENTED_EDGE('',*,*,#217,.F.);
#293=ORIENTED_EDGE('',*,*,#185,.F.);
#294=ORIENTED_EDGE('',*,*,#216,.F.);
#295=ORIENTED_EDGE('',*,*,#218,.T.);
#296=ORIENTED_EDGE('',*,*,#208,.T.);
#297=ORIENTED_EDGE('',*,*,#219,.T.);
#298=ORIENTED_EDGE('',*,*,#190,.F.);
#299=ORIENTED_EDGE('',*,*,#207,.F.);
#300=ORIENTED_EDGE('',*,*,#215,.F.);
#301=ORIENTED_EDGE('',*,*,#183,.F.);
#302=ORIENTED_EDGE('',*,*,#219,.F.);
#303=ORIENTED_EDGE('',*,*,#220,.T.);
#304=ORIENTED_EDGE('',*,*,#210,.T.);
#305=ORIENTED_EDGE('',*,*,#221,.T.);
#306=ORIENTED_EDGE('',*,*,#188,.F.);
#307=ORIENTED_EDGE('',*,*,#209,.F.);
#308=ORIENTED_EDGE('',*,*,#218,.F.);
#309=ORIENTED_EDGE('',*,*,#189,.F.);
#310=ORIENTED_EDGE('',*,*,#221,.F.);
#311=ORIENTED_EDGE('',*,*,#222,.T.);
#312=ORIENTED_EDGE('',*,*,#186,.F.);
#313=ORIENTED_EDGE('',*,*,#217,.T.);
#314=ORIENTED_EDGE('',*,*,#204,.T.);
#315=ORIENTED_EDGE('',*,*,#211,.F.);
#316=ORIENTED_EDGE('',*,*,#220,.F.);
#317=ORIENTED_EDGE('',*,*,#187,.F.);
#318=ORIENTED_EDGE('',*,*,#222,.F.);
#319=PLANE('',#363);
#320=PLANE('',#368);
#321=PLANE('',#373);
#322=PLANE('',#374);
#323=PLANE('',#377);
#324=PLANE('',#386);
#325=PLANE('',#388);
#326=PLANE('',#390);
#327=PLANE('',#392);
#328=PLANE('',#394);
#329=PLANE('',#396);
#330=ADVANCED_FACE('',(#24),#319,.T.);
#331=ADVANCED_FACE('',(#25),#320,.F.);
#332=ADVANCED_FACE('',(#26),#321,.T.);
#333=ADVANCED_FACE('',(#27),#322,.T.);
#334=ADVANCED_FACE('',(#28),#16,.T.);
#335=ADVANCED_FACE('',(#29,#15),#323,.T.);
#336=ADVANCED_FACE('',(#30),#17,.T.);
#337=ADVANCED_FACE('',(#31),#324,.T.);
#338=ADVANCED_FACE('',(#32),#18,.T.);
#339=ADVANCED_FACE('',(#33),#325,.T.);
#340=ADVANCED_FACE('',(#34),#19,.T.);
#341=ADVANCED_FACE('',(#35),#326,.T.);
#342=ADVANCED_FACE('',(#36),#20,.T.);
#343=ADVANCED_FACE('',(#37),#327,.T.);
#344=ADVANCED_FACE('',(#38),#21,.T.);
#345=ADVANCED_FACE('',(#39),#328,.T.);
#346=ADVANCED_FACE('',(#40),#22,.T.);
#347=ADVANCED_FACE('',(#41),#329,.T.);
#348=ADVANCED_FACE('',(#42),#23,.T.);
#349=CLOSED_SHELL('',(#330,#331,#332,#333,#334,#335,#336,#337,#338,#339,
#340,#341,#342,#343,#344,#345,#346,#347,#348));
#350=DERIVED_UNIT_ELEMENT(#352,1.);
#351=DERIVED_UNIT_ELEMENT(#607,-3.);
#352=(
MASS_UNIT()
NAMED_UNIT(*)
SI_UNIT(.KILO.,.GRAM.)
);
#353=DERIVED_UNIT((#350,#351));
#354=MEASURE_REPRESENTATION_ITEM('density measure',
POSITIVE_RATIO_MEASURE(7850.),#353);
#355=PROPERTY_DEFINITION_REPRESENTATION(#360,#357);
#356=PROPERTY_DEFINITION_REPRESENTATION(#361,#358);
#357=REPRESENTATION('material name',(#359),#604);
#358=REPRESENTATION('density',(#354),#604);
#359=DESCRIPTIVE_REPRESENTATION_ITEM('Acier','Acier');
#360=PROPERTY_DEFINITION('material property','material name',#614);
#361=PROPERTY_DEFINITION('material property','density of part',#614);
#362=AXIS2_PLACEMENT_3D('',#502,#398,#399);
#363=AXIS2_PLACEMENT_3D('',#503,#400,#401);
#364=AXIS2_PLACEMENT_3D('',#506,#402,#403);
#365=AXIS2_PLACEMENT_3D('',#510,#405,#406);
#366=AXIS2_PLACEMENT_3D('',#514,#408,#409);
#367=AXIS2_PLACEMENT_3D('',#518,#411,#412);
#368=AXIS2_PLACEMENT_3D('',#520,#414,#415);
#369=AXIS2_PLACEMENT_3D('',#523,#416,#417);
#370=AXIS2_PLACEMENT_3D('',#527,#419,#420);
#371=AXIS2_PLACEMENT_3D('',#531,#422,#423);
#372=AXIS2_PLACEMENT_3D('',#535,#425,#426);
#373=AXIS2_PLACEMENT_3D('',#537,#428,#429);
#374=AXIS2_PLACEMENT_3D('',#543,#433,#434);
#375=AXIS2_PLACEMENT_3D('',#549,#438,#439);
#376=AXIS2_PLACEMENT_3D('',#551,#440,#441);
#377=AXIS2_PLACEMENT_3D('',#553,#443,#444);
#378=AXIS2_PLACEMENT_3D('',#555,#445,#446);
#379=AXIS2_PLACEMENT_3D('',#558,#448,#449);
#380=AXIS2_PLACEMENT_3D('',#560,#450,#451);
#381=AXIS2_PLACEMENT_3D('',#566,#454,#455);
#382=AXIS2_PLACEMENT_3D('',#570,#457,#458);
#383=AXIS2_PLACEMENT_3D('',#574,#460,#461);
#384=AXIS2_PLACEMENT_3D('',#577,#463,#464);
#385=AXIS2_PLACEMENT_3D('',#578,#465,#466);
#386=AXIS2_PLACEMENT_3D('',#580,#468,#469);
#387=AXIS2_PLACEMENT_3D('',#582,#471,#472);
#388=AXIS2_PLACEMENT_3D('',#583,#473,#474);
#389=AXIS2_PLACEMENT_3D('',#585,#476,#477);
#390=AXIS2_PLACEMENT_3D('',#586,#478,#479);
#391=AXIS2_PLACEMENT_3D('',#589,#482,#483);
#392=AXIS2_PLACEMENT_3D('',#591,#485,#486);
#393=AXIS2_PLACEMENT_3D('',#594,#489,#490);
#394=AXIS2_PLACEMENT_3D('',#595,#491,#492);
#395=AXIS2_PLACEMENT_3D('',#598,#495,#496);
#396=AXIS2_PLACEMENT_3D('',#599,#497,#498);
#397=AXIS2_PLACEMENT_3D('',#601,#500,#501);
#398=DIRECTION('axis',(0.,0.,1.));
#399=DIRECTION('refdir',(1.,0.,0.));
#400=DIRECTION('center_axis',(0.,1.,0.));
#401=DIRECTION('ref_axis',(0.,0.,1.));
#402=DIRECTION('center_axis',(0.,1.,0.));
#403=DIRECTION('ref_axis',(-0.707106781186549,0.,-0.707106781186546));
#404=DIRECTION('',(6.66133814775094E-16,0.,1.));
#405=DIRECTION('center_axis',(0.,1.,0.));
#406=DIRECTION('ref_axis',(-0.707106781186548,0.,0.707106781186548));
#407=DIRECTION('',(1.,0.,0.));
#408=DIRECTION('center_axis',(0.,1.,0.));
#409=DIRECTION('ref_axis',(0.707106781186548,0.,0.707106781186548));
#410=DIRECTION('',(0.,0.,-1.));
#411=DIRECTION('center_axis',(0.,1.,0.));
#412=DIRECTION('ref_axis',(0.707106781186551,0.,-0.707106781186544));
#413=DIRECTION('',(-1.,0.,-1.31515214911498E-15));
#414=DIRECTION('center_axis',(0.,1.,0.));
#415=DIRECTION('ref_axis',(1.,0.,0.));
#416=DIRECTION('center_axis',(0.,-1.,0.));
#417=DIRECTION('ref_axis',(-0.707106781186554,0.,-0.707106781186541));
#418=DIRECTION('',(1.,0.,0.));
#419=DIRECTION('center_axis',(0.,-1.,0.));
#420=DIRECTION('ref_axis',(0.707106781186557,0.,-0.707106781186538));
#421=DIRECTION('',(0.,0.,1.));
#422=DIRECTION('center_axis',(0.,-1.,0.));
#423=DIRECTION('ref_axis',(0.707106781186551,0.,0.707106781186544));
#424=DIRECTION('',(-1.,0.,-4.67125295282382E-16));
#425=DIRECTION('center_axis',(0.,-1.,0.));
#426=DIRECTION('ref_axis',(-0.707106781186544,0.,0.707106781186551));
#427=DIRECTION('',(0.,0.,-1.));
#428=DIRECTION('center_axis',(-1.,0.,6.66133814775094E-16));
#429=DIRECTION('ref_axis',(-6.66133814775094E-16,0.,-1.));
#430=DIRECTION('',(0.,-1.,0.));
#431=DIRECTION('',(-6.66133814775094E-16,0.,-1.));
#432=DIRECTION('',(0.,1.,0.));
#433=DIRECTION('center_axis',(1.,0.,0.));
#434=DIRECTION('ref_axis',(0.,0.,1.));
#435=DIRECTION('',(0.,-1.,0.));
#436=DIRECTION('',(0.,0.,1.));
#437=DIRECTION('',(0.,1.,0.));
#438=DIRECTION('center_axis',(0.,-1.,0.));
#439=DIRECTION('ref_axis',(0.707106781186551,0.,-0.707106781186544));
#440=DIRECTION('center_axis',(0.,1.,0.));
#441=DIRECTION('ref_axis',(0.707106781186551,0.,-0.707106781186544));
#442=DIRECTION('',(0.,-1.,0.));
#443=DIRECTION('center_axis',(0.,-1.,0.));
#444=DIRECTION('ref_axis',(0.,0.,-1.));
#445=DIRECTION('center_axis',(0.,1.,0.));
#446=DIRECTION('ref_axis',(0.707106781186548,0.,0.707106781186548));
#447=DIRECTION('',(-1.,0.,0.));
#448=DIRECTION('center_axis',(0.,1.,0.));
#449=DIRECTION('ref_axis',(-0.707106781186548,0.,0.707106781186548));
#450=DIRECTION('center_axis',(0.,1.,0.));
#451=DIRECTION('ref_axis',(-0.707106781186549,0.,-0.707106781186546));
#452=DIRECTION('',(1.,0.,1.31515214911498E-15));
#453=DIRECTION('',(0.,0.,1.));
#454=DIRECTION('center_axis',(0.,1.,0.));
#455=DIRECTION('ref_axis',(0.707106781186557,0.,-0.707106781186538));
#456=DIRECTION('',(1.,0.,0.));
#457=DIRECTION('center_axis',(0.,1.,0.));
#458=DIRECTION('ref_axis',(-0.707106781186554,0.,-0.707106781186541));
#459=DIRECTION('',(0.,0.,-1.));
#460=DIRECTION('center_axis',(0.,1.,0.));
#461=DIRECTION('ref_axis',(-0.707106781186544,0.,0.707106781186551));
#462=DIRECTION('',(-1.,0.,-4.67125295282382E-16));
#463=DIRECTION('center_axis',(0.,1.,0.));
#464=DIRECTION('ref_axis',(0.707106781186551,0.,0.707106781186544));
#465=DIRECTION('center_axis',(0.,-1.,0.));
#466=DIRECTION('ref_axis',(-0.707106781186548,0.,0.707106781186548));
#467=DIRECTION('',(0.,-1.,0.));
#468=DIRECTION('center_axis',(1.31515214911498E-15,0.,-1.));
#469=DIRECTION('ref_axis',(1.,0.,1.31515214911498E-15));
#470=DIRECTION('',(0.,1.,0.));
#471=DIRECTION('center_axis',(0.,-1.,0.));
#472=DIRECTION('ref_axis',(-0.707106781186549,0.,-0.707106781186546));
#473=DIRECTION('center_axis',(0.,0.,1.));
#474=DIRECTION('ref_axis',(-1.,0.,0.));
#475=DIRECTION('',(0.,1.,0.));
#476=DIRECTION('center_axis',(0.,-1.,0.));
#477=DIRECTION('ref_axis',(0.707106781186548,0.,0.707106781186548));
#478=DIRECTION('center_axis',(0.,0.,-1.));
#479=DIRECTION('ref_axis',(1.,0.,0.));
#480=DIRECTION('',(0.,1.,0.));
#481=DIRECTION('',(0.,-1.,0.));
#482=DIRECTION('center_axis',(0.,-1.,0.));
#483=DIRECTION('ref_axis',(0.707106781186557,0.,-0.707106781186538));
#484=DIRECTION('',(0.,1.,0.));
#485=DIRECTION('center_axis',(-1.,0.,0.));
#486=DIRECTION('ref_axis',(0.,0.,-1.));
#487=DIRECTION('',(0.,1.,0.));
#488=DIRECTION('',(0.,-1.,0.));
#489=DIRECTION('center_axis',(0.,-1.,0.));
#490=DIRECTION('ref_axis',(-0.707106781186554,0.,-0.707106781186541));
#491=DIRECTION('center_axis',(-4.67125295282382E-16,0.,1.));
#492=DIRECTION('ref_axis',(-1.,0.,-4.67125295282382E-16));
#493=DIRECTION('',(0.,1.,0.));
#494=DIRECTION('',(0.,-1.,0.));
#495=DIRECTION('center_axis',(0.,-1.,0.));
#496=DIRECTION('ref_axis',(-0.707106781186544,0.,0.707106781186551));
#497=DIRECTION('center_axis',(1.,0.,0.));
#498=DIRECTION('ref_axis',(0.,0.,1.));
#499=DIRECTION('',(0.,-1.,0.));
#500=DIRECTION('center_axis',(0.,-1.,0.));
#501=DIRECTION('ref_axis',(0.707106781186551,0.,0.707106781186544));
#502=CARTESIAN_POINT('',(0.,0.,0.));
#503=CARTESIAN_POINT('Origin',(31.2237032521064,2.,-51.4382174187335));
#504=CARTESIAN_POINT('',(26.4965728752539,2.,-94.6));
#505=CARTESIAN_POINT('',(24.4965728752539,2.,-92.6));
#506=CARTESIAN_POINT('Origin',(26.4965728752539,2.,-92.6));
#507=CARTESIAN_POINT('',(24.4965728752539,2.,-36.6));
#508=CARTESIAN_POINT('',(24.4965728752539,2.,-43.0191087093667));
#509=CARTESIAN_POINT('',(26.4965728752539,2.,-34.6));
#510=CARTESIAN_POINT('Origin',(26.4965728752539,2.,-36.6));
#511=CARTESIAN_POINT('',(36.0034271247461,2.,-34.6));
#512=CARTESIAN_POINT('',(34.6135651884263,2.,-34.6));
#513=CARTESIAN_POINT('',(38.0034271247461,2.,-36.6));
#514=CARTESIAN_POINT('Origin',(36.0034271247461,2.,-36.6));
#515=CARTESIAN_POINT('',(38.0034271247461,2.,-92.6));
#516=CARTESIAN_POINT('',(38.0034271247461,2.,-73.0191087093667));
#517=CARTESIAN_POINT('',(36.0034271247461,2.,-94.6));
#518=CARTESIAN_POINT('Origin',(36.0034271247461,2.,-92.6));
#519=CARTESIAN_POINT('',(27.8601380636802,2.,-94.6));
#520=CARTESIAN_POINT('Origin',(31.2237032521064,0.,-51.4382174187335));
#521=CARTESIAN_POINT('',(26.4965728752539,0.,-91.6));
#522=CARTESIAN_POINT('',(27.4965728752539,0.,-92.6));
#523=CARTESIAN_POINT('Origin',(27.4965728752539,0.,-91.6));
#524=CARTESIAN_POINT('',(35.0034271247461,0.,-92.6));
#525=CARTESIAN_POINT('',(28.8601380636802,0.,-92.6));
#526=CARTESIAN_POINT('',(36.0034271247461,0.,-91.6));
#527=CARTESIAN_POINT('Origin',(35.0034271247461,0.,-91.6));
#528=CARTESIAN_POINT('',(36.0034271247461,0.,-37.6));
#529=CARTESIAN_POINT('',(36.0034271247461,0.,-72.0191087093667));
#530=CARTESIAN_POINT('',(35.0034271247461,0.,-36.6));
#531=CARTESIAN_POINT('Origin',(35.0034271247461,0.,-37.6));
#532=CARTESIAN_POINT('',(27.4965728752539,0.,-36.6));
#533=CARTESIAN_POINT('',(33.6135651884263,0.,-36.6));
#534=CARTESIAN_POINT('',(26.4965728752539,0.,-37.6));
#535=CARTESIAN_POINT('Origin',(27.4965728752539,0.,-37.6));
#536=CARTESIAN_POINT('',(26.4965728752539,0.,-44.0191087093667));
#537=CARTESIAN_POINT('Origin',(24.4965728752539,2.,-34.6));
#538=CARTESIAN_POINT('',(24.4965728752539,0.5,-92.6));
#539=CARTESIAN_POINT('',(24.4965728752539,2.,-92.6));
#540=CARTESIAN_POINT('',(24.4965728752539,0.5,-36.6));
#541=CARTESIAN_POINT('',(24.4965728752539,0.5,-94.6));
#542=CARTESIAN_POINT('',(24.4965728752539,2.,-36.6));
#543=CARTESIAN_POINT('Origin',(38.0034271247461,2.,-94.6));
#544=CARTESIAN_POINT('',(38.0034271247461,0.5,-36.6));
#545=CARTESIAN_POINT('',(38.0034271247461,2.,-36.6));
#546=CARTESIAN_POINT('',(38.0034271247461,0.5,-92.6));
#547=CARTESIAN_POINT('',(38.0034271247461,0.5,-34.6));
#548=CARTESIAN_POINT('',(38.0034271247461,2.,-92.6));
#549=CARTESIAN_POINT('Origin',(36.0034271247461,2.,-92.6));
#550=CARTESIAN_POINT('',(36.0034271247461,0.5,-94.6));
#551=CARTESIAN_POINT('Origin',(36.0034271247461,0.5,-92.6));
#552=CARTESIAN_POINT('',(36.0034271247461,2.,-94.6));
#553=CARTESIAN_POINT('Origin',(31.25,0.5,-64.6));
#554=CARTESIAN_POINT('',(36.0034271247461,0.5,-34.6));
#555=CARTESIAN_POINT('Origin',(36.0034271247461,0.5,-36.6));
#556=CARTESIAN_POINT('',(26.4965728752539,0.5,-34.6));
#557=CARTESIAN_POINT('',(24.4965728752539,0.5,-34.6));
#558=CARTESIAN_POINT('Origin',(26.4965728752539,0.5,-36.6));
#559=CARTESIAN_POINT('',(26.4965728752539,0.5,-94.6));
#560=CARTESIAN_POINT('Origin',(26.4965728752539,0.5,-92.6));
#561=CARTESIAN_POINT('',(38.0034271247461,0.5,-94.6));
#562=CARTESIAN_POINT('',(36.0034271247461,0.5,-91.6));
#563=CARTESIAN_POINT('',(36.0034271247461,0.5,-37.6));
#564=CARTESIAN_POINT('',(36.0034271247461,0.5,-78.6));
#565=CARTESIAN_POINT('',(35.0034271247461,0.5,-92.6));
#566=CARTESIAN_POINT('Origin',(35.0034271247461,0.5,-91.6));
#567=CARTESIAN_POINT('',(27.4965728752539,0.5,-92.6));
#568=CARTESIAN_POINT('',(28.8732864376269,0.5,-92.6));
#569=CARTESIAN_POINT('',(26.4965728752539,0.5,-91.6));
#570=CARTESIAN_POINT('Origin',(27.4965728752539,0.5,-91.6));
#571=CARTESIAN_POINT('',(26.4965728752539,0.5,-37.6));
#572=CARTESIAN_POINT('',(26.4965728752539,0.5,-50.6));
#573=CARTESIAN_POINT('',(27.4965728752539,0.5,-36.6));
#574=CARTESIAN_POINT('Origin',(27.4965728752539,0.5,-37.6));
#575=CARTESIAN_POINT('',(35.0034271247461,0.5,-36.6));
#576=CARTESIAN_POINT('',(33.6267135623731,0.5,-36.6));
#577=CARTESIAN_POINT('Origin',(35.0034271247461,0.5,-37.6));
#578=CARTESIAN_POINT('Origin',(26.4965728752539,2.,-36.6));
#579=CARTESIAN_POINT('',(26.4965728752539,2.,-34.6));
#580=CARTESIAN_POINT('Origin',(24.4965728752539,2.,-94.6));
#581=CARTESIAN_POINT('',(26.4965728752539,2.,-94.6));
#582=CARTESIAN_POINT('Origin',(26.4965728752539,2.,-92.6));
#583=CARTESIAN_POINT('Origin',(38.0034271247461,2.,-34.6));
#584=CARTESIAN_POINT('',(36.0034271247461,2.,-34.6));
#585=CARTESIAN_POINT('Origin',(36.0034271247461,2.,-36.6));
#586=CARTESIAN_POINT('Origin',(26.4965728752539,0.5,-92.6));
#587=CARTESIAN_POINT('',(27.4965728752539,0.5,-92.6));
#588=CARTESIAN_POINT('',(35.0034271247461,0.5,-92.6));
#589=CARTESIAN_POINT('Origin',(35.0034271247461,0.5,-91.6));
#590=CARTESIAN_POINT('',(36.0034271247461,0.5,-91.6));
#591=CARTESIAN_POINT('Origin',(26.4965728752539,0.5,-36.6));
#592=CARTESIAN_POINT('',(26.4965728752539,0.5,-37.6));
#593=CARTESIAN_POINT('',(26.4965728752539,0.5,-91.6));
#594=CARTESIAN_POINT('Origin',(27.4965728752539,0.5,-91.6));
#595=CARTESIAN_POINT('Origin',(36.0034271247461,0.5,-36.6));
#596=CARTESIAN_POINT('',(35.0034271247461,0.5,-36.6));
#597=CARTESIAN_POINT('',(27.4965728752539,0.5,-36.6));
#598=CARTESIAN_POINT('Origin',(27.4965728752539,0.5,-37.6));
#599=CARTESIAN_POINT('Origin',(36.0034271247461,0.5,-92.6));
#600=CARTESIAN_POINT('',(36.0034271247461,0.5,-37.6));
#601=CARTESIAN_POINT('Origin',(35.0034271247461,0.5,-37.6));
#602=UNCERTAINTY_MEASURE_WITH_UNIT(LENGTH_MEASURE(0.01),#606,
'DISTANCE_ACCURACY_VALUE',
'Maximum model space distance between geometric entities at asserted c
onnectivities');
#603=UNCERTAINTY_MEASURE_WITH_UNIT(LENGTH_MEASURE(0.01),#606,
'DISTANCE_ACCURACY_VALUE',
'Maximum model space distance between geometric entities at asserted c
onnectivities');
#604=(
GEOMETRIC_REPRESENTATION_CONTEXT(3)
GLOBAL_UNCERTAINTY_ASSIGNED_CONTEXT((#602))
GLOBAL_UNIT_ASSIGNED_CONTEXT((#606,#608,#609))
REPRESENTATION_CONTEXT('','3D')
);
#605=(
GEOMETRIC_REPRESENTATION_CONTEXT(3)
GLOBAL_UNCERTAINTY_ASSIGNED_CONTEXT((#603))
GLOBAL_UNIT_ASSIGNED_CONTEXT((#606,#608,#609))
REPRESENTATION_CONTEXT('','3D')
);
#606=(
LENGTH_UNIT()
NAMED_UNIT(*)
SI_UNIT(.MILLI.,.METRE.)
);
#607=(
LENGTH_UNIT()
NAMED_UNIT(*)
SI_UNIT($,.METRE.)
);
#608=(
NAMED_UNIT(*)
PLANE_ANGLE_UNIT()
SI_UNIT($,.RADIAN.)
);
#609=(
NAMED_UNIT(*)
SI_UNIT($,.STERADIAN.)
SOLID_ANGLE_UNIT()
);
#610=SHAPE_DEFINITION_REPRESENTATION(#611,#612);
#611=PRODUCT_DEFINITION_SHAPE('',$,#614);
#612=SHAPE_REPRESENTATION('',(#362),#604);
#613=PRODUCT_DEFINITION_CONTEXT('part definition',#618,'design');
#614=PRODUCT_DEFINITION('Chassis MRT Beluga hybrid',
'Chassis MRT Beluga hybrid v6',#615,#613);
#615=PRODUCT_DEFINITION_FORMATION('',$,#620);
#616=PRODUCT_RELATED_PRODUCT_CATEGORY('Chassis MRT Beluga hybrid v6',
'Chassis MRT Beluga hybrid v6',(#620));
#617=APPLICATION_PROTOCOL_DEFINITION('international standard',
'automotive_design',2009,#618);
#618=APPLICATION_CONTEXT(
'Core Data for Automotive Mechanical Design Process');
#619=PRODUCT_CONTEXT('part definition',#618,'mechanical');
#620=PRODUCT('Chassis MRT Beluga hybrid','Chassis MRT Beluga hybrid v6',
$,(#619));
#621=PRESENTATION_STYLE_ASSIGNMENT((#625));
#622=PRESENTATION_STYLE_ASSIGNMENT((#626));
#623=PRESENTATION_STYLE_ASSIGNMENT((#627));
#624=PRESENTATION_STYLE_ASSIGNMENT((#628));
#625=SURFACE_STYLE_USAGE(.BOTH.,#629);
#626=SURFACE_STYLE_USAGE(.BOTH.,#630);
#627=SURFACE_STYLE_USAGE(.BOTH.,#631);
#628=SURFACE_STYLE_USAGE(.BOTH.,#632);
#629=SURFACE_SIDE_STYLE('',(#633));
#630=SURFACE_SIDE_STYLE('',(#634));
#631=SURFACE_SIDE_STYLE('',(#635));
#632=SURFACE_SIDE_STYLE('',(#636));
#633=SURFACE_STYLE_FILL_AREA(#637);
#634=SURFACE_STYLE_FILL_AREA(#638);
#635=SURFACE_STYLE_FILL_AREA(#639);
#636=SURFACE_STYLE_FILL_AREA(#640);
#637=FILL_AREA_STYLE('Acier - Satin\X\E9',(#641));
#638=FILL_AREA_STYLE('Fibre de carbone - Crois\X\E9e',(#642));
#639=FILL_AREA_STYLE('ABS (blanc)',(#643));
#640=FILL_AREA_STYLE('Laiton - Poli',(#644));
#641=FILL_AREA_STYLE_COLOUR('Acier - Satin\X\E9',#645);
#642=FILL_AREA_STYLE_COLOUR('Fibre de carbone - Crois\X\E9e',#646);
#643=FILL_AREA_STYLE_COLOUR('ABS (blanc)',#647);
#644=FILL_AREA_STYLE_COLOUR('Laiton - Poli',#648);
#645=COLOUR_RGB('Acier - Satin\X\E9',0.627450980392157,0.627450980392157,
0.627450980392157);
#646=COLOUR_RGB('Fibre de carbone - Crois\X\E9e',0.0980392156862745,0.0980392156862745,
0.0980392156862745);
#647=COLOUR_RGB('ABS (blanc)',0.964705882352941,0.964705882352941,0.952941176470588);
#648=COLOUR_RGB('Laiton - Poli',0.952941176470588,0.796078431372549,0.486274509803922);
ENDSEC;
END-ISO-10303-21;
