ISO-10303-21;
HEADER;
/* Generated by software containing ST-Developer
 * from STEP Tools, Inc. (www.steptools.com) 
 */
/* OPTION: using custom renumber hook */

FILE_DESCRIPTION(
/* description */ ('STEP AP242',
'CAx-IF Rec.Pracs.---Representation and Presentation of Product Manufa
cturing Information (PMI)---4.0---2014-10-13',
'CAx-IF Rec.Pracs.---3D Tessellated Geometry---0.4---2014-09-14','2;1'),

/* implementation_level */ '2;1');

FILE_NAME(
/* name */ '6613bb8f5217eb3c0f61b535',
/* time_stamp */ '2024-04-08T09:40:32Z',
/* author */ (''),
/* organization */ (''),
/* preprocessor_version */ 'ST-DEVELOPER v20',
/* originating_system */ '  ',
/* authorisation */ '  ');

FILE_SCHEMA (('AP242_MANAGED_MODEL_BASED_3D_ENGINEERING_MIM_LF { 1 0 10303 442 1 1 4 }'));
ENDSEC;

DATA;
#10=SHAPE_REPRESENTATION_RELATIONSHIP('','',#375,#11);
#11=ADVANCED_BREP_SHAPE_REPRESENTATION('',(#373),#661);
#12=DEGENERATE_TOROIDAL_SURFACE('',#406,0.00272548339959391,0.005,.T.);
#13=DEGENERATE_TOROIDAL_SURFACE('',#412,0.00272548339959392,0.005,.T.);
#14=DEGENERATE_TOROIDAL_SURFACE('',#418,0.00272548339959391,0.005,.T.);
#15=DEGENERATE_TOROIDAL_SURFACE('',#424,0.00272548339959387,0.005,.T.);
#16=CIRCLE('',#385,0.00635);
#17=CIRCLE('',#386,0.00635);
#18=CIRCLE('',#388,0.00635);
#19=CIRCLE('',#389,0.00635);
#20=CIRCLE('',#391,0.00635);
#21=CIRCLE('',#392,0.00635);
#22=CIRCLE('',#394,0.00272548339959391);
#23=CIRCLE('',#395,0.00272548339959392);
#24=CIRCLE('',#396,0.00272548339959391);
#25=CIRCLE('',#397,0.00272548339959387);
#26=CIRCLE('',#399,0.00272548339959387);
#27=CIRCLE('',#400,0.00272548339959391);
#28=CIRCLE('',#401,0.00272548339959392);
#29=CIRCLE('',#402,0.00272548339959391);
#30=CIRCLE('',#404,0.005);
#31=CIRCLE('',#405,0.005);
#32=CIRCLE('',#407,0.005);
#33=CIRCLE('',#408,0.005);
#34=CIRCLE('',#410,0.005);
#35=CIRCLE('',#411,0.005);
#36=CIRCLE('',#413,0.005);
#37=CIRCLE('',#414,0.005);
#38=CIRCLE('',#416,0.005);
#39=CIRCLE('',#417,0.005);
#40=CIRCLE('',#419,0.005);
#41=CIRCLE('',#420,0.005);
#42=CIRCLE('',#422,0.005);
#43=CIRCLE('',#423,0.005);
#44=CIRCLE('',#425,0.005);
#45=CIRCLE('',#426,0.005);
#46=CYLINDRICAL_SURFACE('',#384,0.00635);
#47=CYLINDRICAL_SURFACE('',#387,0.00635);
#48=CYLINDRICAL_SURFACE('',#390,0.00635);
#49=CYLINDRICAL_SURFACE('',#403,0.005);
#50=CYLINDRICAL_SURFACE('',#409,0.005);
#51=CYLINDRICAL_SURFACE('',#415,0.005);
#52=CYLINDRICAL_SURFACE('',#421,0.005);
#53=CYLINDRICAL_SURFACE('',#427,0.005);
#54=ELLIPSE('',#378,0.0075,0.005);
#55=ELLIPSE('',#379,0.0075,0.005);
#56=ELLIPSE('',#382,0.0075,0.005);
#57=ELLIPSE('',#383,0.0075,0.005);
#58=ORIENTED_EDGE('',*,*,#162,.F.);
#59=ORIENTED_EDGE('',*,*,#163,.F.);
#60=ORIENTED_EDGE('',*,*,#164,.T.);
#61=ORIENTED_EDGE('',*,*,#165,.T.);
#62=ORIENTED_EDGE('',*,*,#166,.T.);
#63=ORIENTED_EDGE('',*,*,#167,.T.);
#64=ORIENTED_EDGE('',*,*,#168,.F.);
#65=ORIENTED_EDGE('',*,*,#169,.F.);
#66=ORIENTED_EDGE('',*,*,#163,.T.);
#67=ORIENTED_EDGE('',*,*,#170,.T.);
#68=ORIENTED_EDGE('',*,*,#171,.T.);
#69=ORIENTED_EDGE('',*,*,#172,.T.);
#70=ORIENTED_EDGE('',*,*,#173,.F.);
#71=ORIENTED_EDGE('',*,*,#168,.T.);
#72=ORIENTED_EDGE('',*,*,#174,.T.);
#73=ORIENTED_EDGE('',*,*,#175,.F.);
#74=ORIENTED_EDGE('',*,*,#176,.T.);
#75=ORIENTED_EDGE('',*,*,#177,.F.);
#76=ORIENTED_EDGE('',*,*,#178,.T.);
#77=ORIENTED_EDGE('',*,*,#179,.F.);
#78=ORIENTED_EDGE('',*,*,#178,.F.);
#79=ORIENTED_EDGE('',*,*,#176,.F.);
#80=ORIENTED_EDGE('',*,*,#174,.F.);
#81=ORIENTED_EDGE('',*,*,#180,.T.);
#82=ORIENTED_EDGE('',*,*,#164,.F.);
#83=ORIENTED_EDGE('',*,*,#169,.T.);
#84=ORIENTED_EDGE('',*,*,#173,.T.);
#85=ORIENTED_EDGE('',*,*,#181,.T.);
#86=ORIENTED_EDGE('',*,*,#182,.T.);
#87=ORIENTED_EDGE('',*,*,#183,.T.);
#88=ORIENTED_EDGE('',*,*,#184,.T.);
#89=ORIENTED_EDGE('',*,*,#185,.T.);
#90=ORIENTED_EDGE('',*,*,#186,.T.);
#91=ORIENTED_EDGE('',*,*,#187,.T.);
#92=ORIENTED_EDGE('',*,*,#188,.T.);
#93=ORIENTED_EDGE('',*,*,#162,.T.);
#94=ORIENTED_EDGE('',*,*,#189,.T.);
#95=ORIENTED_EDGE('',*,*,#190,.T.);
#96=ORIENTED_EDGE('',*,*,#191,.T.);
#97=ORIENTED_EDGE('',*,*,#192,.T.);
#98=ORIENTED_EDGE('',*,*,#193,.T.);
#99=ORIENTED_EDGE('',*,*,#194,.T.);
#100=ORIENTED_EDGE('',*,*,#195,.T.);
#101=ORIENTED_EDGE('',*,*,#196,.T.);
#102=ORIENTED_EDGE('',*,*,#197,.T.);
#103=ORIENTED_EDGE('',*,*,#170,.F.);
#104=ORIENTED_EDGE('',*,*,#167,.F.);
#105=ORIENTED_EDGE('',*,*,#179,.T.);
#106=ORIENTED_EDGE('',*,*,#177,.T.);
#107=ORIENTED_EDGE('',*,*,#175,.T.);
#108=ORIENTED_EDGE('',*,*,#172,.F.);
#109=ORIENTED_EDGE('',*,*,#171,.F.);
#110=ORIENTED_EDGE('',*,*,#197,.F.);
#111=ORIENTED_EDGE('',*,*,#198,.F.);
#112=ORIENTED_EDGE('',*,*,#199,.F.);
#113=ORIENTED_EDGE('',*,*,#181,.F.);
#114=ORIENTED_EDGE('',*,*,#199,.T.);
#115=ORIENTED_EDGE('',*,*,#198,.T.);
#116=ORIENTED_EDGE('',*,*,#196,.F.);
#117=ORIENTED_EDGE('',*,*,#200,.F.);
#118=ORIENTED_EDGE('',*,*,#201,.F.);
#119=ORIENTED_EDGE('',*,*,#182,.F.);
#120=ORIENTED_EDGE('',*,*,#201,.T.);
#121=ORIENTED_EDGE('',*,*,#200,.T.);
#122=ORIENTED_EDGE('',*,*,#195,.F.);
#123=ORIENTED_EDGE('',*,*,#202,.F.);
#124=ORIENTED_EDGE('',*,*,#203,.F.);
#125=ORIENTED_EDGE('',*,*,#183,.F.);
#126=ORIENTED_EDGE('',*,*,#203,.T.);
#127=ORIENTED_EDGE('',*,*,#202,.T.);
#128=ORIENTED_EDGE('',*,*,#194,.F.);
#129=ORIENTED_EDGE('',*,*,#204,.F.);
#130=ORIENTED_EDGE('',*,*,#205,.F.);
#131=ORIENTED_EDGE('',*,*,#184,.F.);
#132=ORIENTED_EDGE('',*,*,#205,.T.);
#133=ORIENTED_EDGE('',*,*,#204,.T.);
#134=ORIENTED_EDGE('',*,*,#193,.F.);
#135=ORIENTED_EDGE('',*,*,#206,.F.);
#136=ORIENTED_EDGE('',*,*,#207,.F.);
#137=ORIENTED_EDGE('',*,*,#185,.F.);
#138=ORIENTED_EDGE('',*,*,#207,.T.);
#139=ORIENTED_EDGE('',*,*,#206,.T.);
#140=ORIENTED_EDGE('',*,*,#192,.F.);
#141=ORIENTED_EDGE('',*,*,#208,.F.);
#142=ORIENTED_EDGE('',*,*,#209,.F.);
#143=ORIENTED_EDGE('',*,*,#186,.F.);
#144=ORIENTED_EDGE('',*,*,#209,.T.);
#145=ORIENTED_EDGE('',*,*,#208,.T.);
#146=ORIENTED_EDGE('',*,*,#191,.F.);
#147=ORIENTED_EDGE('',*,*,#210,.F.);
#148=ORIENTED_EDGE('',*,*,#211,.F.);
#149=ORIENTED_EDGE('',*,*,#187,.F.);
#150=ORIENTED_EDGE('',*,*,#211,.T.);
#151=ORIENTED_EDGE('',*,*,#210,.T.);
#152=ORIENTED_EDGE('',*,*,#190,.F.);
#153=ORIENTED_EDGE('',*,*,#212,.F.);
#154=ORIENTED_EDGE('',*,*,#213,.F.);
#155=ORIENTED_EDGE('',*,*,#188,.F.);
#156=ORIENTED_EDGE('',*,*,#165,.F.);
#157=ORIENTED_EDGE('',*,*,#180,.F.);
#158=ORIENTED_EDGE('',*,*,#213,.T.);
#159=ORIENTED_EDGE('',*,*,#212,.T.);
#160=ORIENTED_EDGE('',*,*,#189,.F.);
#161=ORIENTED_EDGE('',*,*,#166,.F.);
#162=EDGE_CURVE('',#214,#215,#254,.T.);
#163=EDGE_CURVE('',#216,#214,#255,.T.);
#164=EDGE_CURVE('',#216,#217,#256,.T.);
#165=EDGE_CURVE('',#217,#218,#54,.F.);
#166=EDGE_CURVE('',#218,#215,#55,.F.);
#167=EDGE_CURVE('',#214,#219,#257,.T.);
#168=EDGE_CURVE('',#220,#219,#258,.T.);
#169=EDGE_CURVE('',#216,#220,#259,.T.);
#170=EDGE_CURVE('',#219,#221,#260,.T.);
#171=EDGE_CURVE('',#221,#222,#56,.T.);
#172=EDGE_CURVE('',#222,#223,#57,.T.);
#173=EDGE_CURVE('',#220,#223,#261,.T.);
#174=EDGE_CURVE('',#224,#224,#16,.T.);
#175=EDGE_CURVE('',#225,#225,#17,.T.);
#176=EDGE_CURVE('',#226,#226,#18,.T.);
#177=EDGE_CURVE('',#227,#227,#19,.T.);
#178=EDGE_CURVE('',#228,#228,#20,.T.);
#179=EDGE_CURVE('',#229,#229,#21,.T.);
#180=EDGE_CURVE('',#230,#217,#262,.F.);
#181=EDGE_CURVE('',#223,#231,#263,.T.);
#182=EDGE_CURVE('',#231,#232,#22,.T.);
#183=EDGE_CURVE('',#232,#233,#264,.T.);
#184=EDGE_CURVE('',#233,#234,#23,.T.);
#185=EDGE_CURVE('',#234,#235,#265,.F.);
#186=EDGE_CURVE('',#235,#236,#24,.T.);
#187=EDGE_CURVE('',#236,#237,#266,.F.);
#188=EDGE_CURVE('',#237,#230,#25,.T.);
#189=EDGE_CURVE('',#215,#238,#267,.T.);
#190=EDGE_CURVE('',#238,#239,#26,.F.);
#191=EDGE_CURVE('',#239,#240,#268,.T.);
#192=EDGE_CURVE('',#240,#241,#27,.F.);
#193=EDGE_CURVE('',#241,#242,#269,.T.);
#194=EDGE_CURVE('',#242,#243,#28,.F.);
#195=EDGE_CURVE('',#243,#244,#270,.F.);
#196=EDGE_CURVE('',#244,#245,#29,.F.);
#197=EDGE_CURVE('',#245,#221,#271,.F.);
#198=EDGE_CURVE('',#246,#245,#30,.T.);
#199=EDGE_CURVE('',#231,#246,#31,.T.);
#200=EDGE_CURVE('',#247,#244,#32,.T.);
#201=EDGE_CURVE('',#232,#247,#33,.T.);
#202=EDGE_CURVE('',#248,#243,#34,.T.);
#203=EDGE_CURVE('',#233,#248,#35,.T.);
#204=EDGE_CURVE('',#249,#242,#36,.T.);
#205=EDGE_CURVE('',#234,#249,#37,.T.);
#206=EDGE_CURVE('',#250,#241,#38,.T.);
#207=EDGE_CURVE('',#235,#250,#39,.T.);
#208=EDGE_CURVE('',#251,#240,#40,.T.);
#209=EDGE_CURVE('',#236,#251,#41,.T.);
#210=EDGE_CURVE('',#252,#239,#42,.T.);
#211=EDGE_CURVE('',#237,#252,#43,.T.);
#212=EDGE_CURVE('',#253,#238,#44,.T.);
#213=EDGE_CURVE('',#230,#253,#45,.T.);
#214=VERTEX_POINT('',#553);
#215=VERTEX_POINT('',#554);
#216=VERTEX_POINT('',#556);
#217=VERTEX_POINT('',#558);
#218=VERTEX_POINT('',#560);
#219=VERTEX_POINT('',#564);
#220=VERTEX_POINT('',#566);
#221=VERTEX_POINT('',#570);
#222=VERTEX_POINT('',#572);
#223=VERTEX_POINT('',#574);
#224=VERTEX_POINT('',#578);
#225=VERTEX_POINT('',#580);
#226=VERTEX_POINT('',#583);
#227=VERTEX_POINT('',#585);
#228=VERTEX_POINT('',#588);
#229=VERTEX_POINT('',#590);
#230=VERTEX_POINT('',#593);
#231=VERTEX_POINT('',#595);
#232=VERTEX_POINT('',#597);
#233=VERTEX_POINT('',#599);
#234=VERTEX_POINT('',#601);
#235=VERTEX_POINT('',#603);
#236=VERTEX_POINT('',#605);
#237=VERTEX_POINT('',#607);
#238=VERTEX_POINT('',#611);
#239=VERTEX_POINT('',#613);
#240=VERTEX_POINT('',#615);
#241=VERTEX_POINT('',#617);
#242=VERTEX_POINT('',#619);
#243=VERTEX_POINT('',#621);
#244=VERTEX_POINT('',#623);
#245=VERTEX_POINT('',#625);
#246=VERTEX_POINT('',#629);
#247=VERTEX_POINT('',#633);
#248=VERTEX_POINT('',#637);
#249=VERTEX_POINT('',#641);
#250=VERTEX_POINT('',#645);
#251=VERTEX_POINT('',#649);
#252=VERTEX_POINT('',#653);
#253=VERTEX_POINT('',#657);
#254=LINE('',#552,#272);
#255=LINE('',#555,#273);
#256=LINE('',#557,#274);
#257=LINE('',#563,#275);
#258=LINE('',#565,#276);
#259=LINE('',#567,#277);
#260=LINE('',#569,#278);
#261=LINE('',#575,#279);
#262=LINE('',#592,#280);
#263=LINE('',#594,#281);
#264=LINE('',#598,#282);
#265=LINE('',#602,#283);
#266=LINE('',#606,#284);
#267=LINE('',#610,#285);
#268=LINE('',#614,#286);
#269=LINE('',#618,#287);
#270=LINE('',#622,#288);
#271=LINE('',#626,#289);
#272=VECTOR('',#432,1.);
#273=VECTOR('',#433,1.);
#274=VECTOR('',#434,1.);
#275=VECTOR('',#441,1.);
#276=VECTOR('',#442,1.);
#277=VECTOR('',#443,1.);
#278=VECTOR('',#446,1.);
#279=VECTOR('',#451,1.);
#280=VECTOR('',#472,1.);
#281=VECTOR('',#473,1.);
#282=VECTOR('',#476,1.);
#283=VECTOR('',#479,1.);
#284=VECTOR('',#482,1.);
#285=VECTOR('',#487,1.);
#286=VECTOR('',#490,1.);
#287=VECTOR('',#493,1.);
#288=VECTOR('',#496,1.);
#289=VECTOR('',#499,1.);
#290=EDGE_LOOP('',(#58,#59,#60,#61,#62));
#291=EDGE_LOOP('',(#63,#64,#65,#66));
#292=EDGE_LOOP('',(#67,#68,#69,#70,#71));
#293=EDGE_LOOP('',(#72));
#294=EDGE_LOOP('',(#73));
#295=EDGE_LOOP('',(#74));
#296=EDGE_LOOP('',(#75));
#297=EDGE_LOOP('',(#76));
#298=EDGE_LOOP('',(#77));
#299=EDGE_LOOP('',(#78));
#300=EDGE_LOOP('',(#79));
#301=EDGE_LOOP('',(#80));
#302=EDGE_LOOP('',(#81,#82,#83,#84,#85,#86,#87,#88,#89,#90,#91,#92));
#303=EDGE_LOOP('',(#93,#94,#95,#96,#97,#98,#99,#100,#101,#102,#103,#104));
#304=EDGE_LOOP('',(#105));
#305=EDGE_LOOP('',(#106));
#306=EDGE_LOOP('',(#107));
#307=EDGE_LOOP('',(#108,#109,#110,#111,#112,#113));
#308=EDGE_LOOP('',(#114,#115,#116,#117,#118,#119));
#309=EDGE_LOOP('',(#120,#121,#122,#123,#124,#125));
#310=EDGE_LOOP('',(#126,#127,#128,#129,#130,#131));
#311=EDGE_LOOP('',(#132,#133,#134,#135,#136,#137));
#312=EDGE_LOOP('',(#138,#139,#140,#141,#142,#143));
#313=EDGE_LOOP('',(#144,#145,#146,#147,#148,#149));
#314=EDGE_LOOP('',(#150,#151,#152,#153,#154,#155));
#315=EDGE_LOOP('',(#156,#157,#158,#159,#160,#161));
#316=FACE_BOUND('',#290,.T.);
#317=FACE_BOUND('',#291,.T.);
#318=FACE_BOUND('',#292,.T.);
#319=FACE_BOUND('',#293,.T.);
#320=FACE_BOUND('',#294,.T.);
#321=FACE_BOUND('',#295,.T.);
#322=FACE_BOUND('',#296,.T.);
#323=FACE_BOUND('',#297,.T.);
#324=FACE_BOUND('',#298,.T.);
#325=FACE_BOUND('',#299,.T.);
#326=FACE_BOUND('',#300,.T.);
#327=FACE_BOUND('',#301,.T.);
#328=FACE_BOUND('',#302,.T.);
#329=FACE_BOUND('',#303,.T.);
#330=FACE_BOUND('',#304,.T.);
#331=FACE_BOUND('',#305,.T.);
#332=FACE_BOUND('',#306,.T.);
#333=FACE_BOUND('',#307,.T.);
#334=FACE_BOUND('',#308,.T.);
#335=FACE_BOUND('',#309,.T.);
#336=FACE_BOUND('',#310,.T.);
#337=FACE_BOUND('',#311,.T.);
#338=FACE_BOUND('',#312,.T.);
#339=FACE_BOUND('',#313,.T.);
#340=FACE_BOUND('',#314,.T.);
#341=FACE_BOUND('',#315,.T.);
#342=PLANE('',#377);
#343=PLANE('',#380);
#344=PLANE('',#381);
#345=PLANE('',#393);
#346=PLANE('',#398);
#347=ADVANCED_FACE('',(#316),#342,.T.);
#348=ADVANCED_FACE('',(#317),#343,.F.);
#349=ADVANCED_FACE('',(#318),#344,.F.);
#350=ADVANCED_FACE('',(#319,#320),#46,.F.);
#351=ADVANCED_FACE('',(#321,#322),#47,.F.);
#352=ADVANCED_FACE('',(#323,#324),#48,.F.);
#353=ADVANCED_FACE('',(#325,#326,#327,#328),#345,.T.);
#354=ADVANCED_FACE('',(#329,#330,#331,#332),#346,.F.);
#355=ADVANCED_FACE('',(#333),#49,.T.);
#356=ADVANCED_FACE('',(#334),#12,.T.);
#357=ADVANCED_FACE('',(#335),#50,.T.);
#358=ADVANCED_FACE('',(#336),#13,.T.);
#359=ADVANCED_FACE('',(#337),#51,.T.);
#360=ADVANCED_FACE('',(#338),#14,.T.);
#361=ADVANCED_FACE('',(#339),#52,.T.);
#362=ADVANCED_FACE('',(#340),#15,.T.);
#363=ADVANCED_FACE('',(#341),#53,.T.);
#364=CLOSED_SHELL('',(#347,#348,#349,#350,#351,#352,#353,#354,#355,#356,
#357,#358,#359,#360,#361,#362,#363));
#365=STYLED_ITEM('',(#366),#373);
#366=PRESENTATION_STYLE_ASSIGNMENT((#367));
#367=SURFACE_STYLE_USAGE(.BOTH.,#368);
#368=SURFACE_SIDE_STYLE('',(#369));
#369=SURFACE_STYLE_FILL_AREA(#370);
#370=FILL_AREA_STYLE('',(#371));
#371=FILL_AREA_STYLE_COLOUR('',#372);
#372=COLOUR_RGB('',0.615686274509804,0.811764705882353,0.929411764705882);
#373=MANIFOLD_SOLID_BREP('Part 1',#364);
#374=SHAPE_DEFINITION_REPRESENTATION(#666,#375);
#375=SHAPE_REPRESENTATION('Part 1',(#376),#661);
#376=AXIS2_PLACEMENT_3D('',#550,#428,#429);
#377=AXIS2_PLACEMENT_3D('',#551,#430,#431);
#378=AXIS2_PLACEMENT_3D('',#559,#435,#436);
#379=AXIS2_PLACEMENT_3D('',#561,#437,#438);
#380=AXIS2_PLACEMENT_3D('',#562,#439,#440);
#381=AXIS2_PLACEMENT_3D('',#568,#444,#445);
#382=AXIS2_PLACEMENT_3D('',#571,#447,#448);
#383=AXIS2_PLACEMENT_3D('',#573,#449,#450);
#384=AXIS2_PLACEMENT_3D('',#576,#452,#453);
#385=AXIS2_PLACEMENT_3D('',#577,#454,#455);
#386=AXIS2_PLACEMENT_3D('',#579,#456,#457);
#387=AXIS2_PLACEMENT_3D('',#581,#458,#459);
#388=AXIS2_PLACEMENT_3D('',#582,#460,#461);
#389=AXIS2_PLACEMENT_3D('',#584,#462,#463);
#390=AXIS2_PLACEMENT_3D('',#586,#464,#465);
#391=AXIS2_PLACEMENT_3D('',#587,#466,#467);
#392=AXIS2_PLACEMENT_3D('',#589,#468,#469);
#393=AXIS2_PLACEMENT_3D('',#591,#470,#471);
#394=AXIS2_PLACEMENT_3D('',#596,#474,#475);
#395=AXIS2_PLACEMENT_3D('',#600,#477,#478);
#396=AXIS2_PLACEMENT_3D('',#604,#480,#481);
#397=AXIS2_PLACEMENT_3D('',#608,#483,#484);
#398=AXIS2_PLACEMENT_3D('',#609,#485,#486);
#399=AXIS2_PLACEMENT_3D('',#612,#488,#489);
#400=AXIS2_PLACEMENT_3D('',#616,#491,#492);
#401=AXIS2_PLACEMENT_3D('',#620,#494,#495);
#402=AXIS2_PLACEMENT_3D('',#624,#497,#498);
#403=AXIS2_PLACEMENT_3D('',#627,#500,#501);
#404=AXIS2_PLACEMENT_3D('',#628,#502,#503);
#405=AXIS2_PLACEMENT_3D('',#630,#504,#505);
#406=AXIS2_PLACEMENT_3D('',#631,#506,#507);
#407=AXIS2_PLACEMENT_3D('',#632,#508,#509);
#408=AXIS2_PLACEMENT_3D('',#634,#510,#511);
#409=AXIS2_PLACEMENT_3D('',#635,#512,#513);
#410=AXIS2_PLACEMENT_3D('',#636,#514,#515);
#411=AXIS2_PLACEMENT_3D('',#638,#516,#517);
#412=AXIS2_PLACEMENT_3D('',#639,#518,#519);
#413=AXIS2_PLACEMENT_3D('',#640,#520,#521);
#414=AXIS2_PLACEMENT_3D('',#642,#522,#523);
#415=AXIS2_PLACEMENT_3D('',#643,#524,#525);
#416=AXIS2_PLACEMENT_3D('',#644,#526,#527);
#417=AXIS2_PLACEMENT_3D('',#646,#528,#529);
#418=AXIS2_PLACEMENT_3D('',#647,#530,#531);
#419=AXIS2_PLACEMENT_3D('',#648,#532,#533);
#420=AXIS2_PLACEMENT_3D('',#650,#534,#535);
#421=AXIS2_PLACEMENT_3D('',#651,#536,#537);
#422=AXIS2_PLACEMENT_3D('',#652,#538,#539);
#423=AXIS2_PLACEMENT_3D('',#654,#540,#541);
#424=AXIS2_PLACEMENT_3D('',#655,#542,#543);
#425=AXIS2_PLACEMENT_3D('',#656,#544,#545);
#426=AXIS2_PLACEMENT_3D('',#658,#546,#547);
#427=AXIS2_PLACEMENT_3D('',#659,#548,#549);
#428=DIRECTION('',(0.,0.,1.));
#429=DIRECTION('',(1.,0.,0.));
#430=DIRECTION('',(-1.,0.,-1.73472347597681E-16));
#431=DIRECTION('',(-1.73472347597681E-16,0.,1.));
#432=DIRECTION('',(-1.7347234759768E-16,0.,1.));
#433=DIRECTION('',(0.,1.,0.));
#434=DIRECTION('',(-1.7347234759768E-16,0.,1.));
#435=DIRECTION('',(-1.,0.,-1.73472347597681E-16));
#436=DIRECTION('',(-1.73472347597681E-16,0.,1.));
#437=DIRECTION('',(-1.,0.,-1.73472347597681E-16));
#438=DIRECTION('',(1.73472347597681E-16,0.,-1.));
#439=DIRECTION('',(0.,0.,1.));
#440=DIRECTION('',(1.,0.,0.));
#441=DIRECTION('',(1.,0.,0.));
#442=DIRECTION('',(0.,1.,0.));
#443=DIRECTION('',(1.,0.,0.));
#444=DIRECTION('',(-1.,0.,0.));
#445=DIRECTION('',(0.,0.,1.));
#446=DIRECTION('',(0.,0.,1.));
#447=DIRECTION('',(-1.,0.,0.));
#448=DIRECTION('',(0.,0.,1.));
#449=DIRECTION('',(-1.,0.,0.));
#450=DIRECTION('',(0.,0.,-1.));
#451=DIRECTION('',(0.,0.,1.));
#452=DIRECTION('',(0.,1.,0.));
#453=DIRECTION('',(0.,0.,1.));
#454=DIRECTION('',(0.,-1.,0.));
#455=DIRECTION('',(0.,0.,-1.));
#456=DIRECTION('',(0.,-1.,0.));
#457=DIRECTION('',(0.,0.,-1.));
#458=DIRECTION('',(0.,1.,0.));
#459=DIRECTION('',(0.,0.,1.));
#460=DIRECTION('',(0.,-1.,0.));
#461=DIRECTION('',(0.,0.,-1.));
#462=DIRECTION('',(0.,-1.,0.));
#463=DIRECTION('',(0.,0.,-1.));
#464=DIRECTION('',(0.,1.,0.));
#465=DIRECTION('',(0.,0.,1.));
#466=DIRECTION('',(0.,-1.,0.));
#467=DIRECTION('',(0.,0.,-1.));
#468=DIRECTION('',(0.,-1.,0.));
#469=DIRECTION('',(0.,0.,-1.));
#470=DIRECTION('',(0.,-1.,0.));
#471=DIRECTION('',(1.,0.,0.));
#472=DIRECTION('',(-0.666666666666667,0.,0.74535599249993));
#473=DIRECTION('',(0.666666666666667,0.,0.74535599249993));
#474=DIRECTION('',(0.,-1.,0.));
#475=DIRECTION('',(0.,0.,-1.));
#476=DIRECTION('',(0.,0.,1.));
#477=DIRECTION('',(0.,-1.,0.));
#478=DIRECTION('',(0.,0.,-1.));
#479=DIRECTION('',(1.,0.,2.05173661992878E-16));
#480=DIRECTION('',(0.,-1.,0.));
#481=DIRECTION('',(0.,0.,-1.));
#482=DIRECTION('',(0.,0.,1.));
#483=DIRECTION('',(0.,-1.,0.));
#484=DIRECTION('',(0.,0.,-1.));
#485=DIRECTION('',(0.,-1.,0.));
#486=DIRECTION('',(1.,0.,0.));
#487=DIRECTION('',(-0.666666666666667,0.,0.74535599249993));
#488=DIRECTION('',(0.,-1.,0.));
#489=DIRECTION('',(0.,0.,-1.));
#490=DIRECTION('',(0.,0.,1.));
#491=DIRECTION('',(0.,-1.,0.));
#492=DIRECTION('',(0.,0.,-1.));
#493=DIRECTION('',(1.,0.,2.05173661992878E-16));
#494=DIRECTION('',(0.,-1.,0.));
#495=DIRECTION('',(0.,0.,-1.));
#496=DIRECTION('',(0.,0.,1.));
#497=DIRECTION('',(0.,-1.,0.));
#498=DIRECTION('',(0.,0.,-1.));
#499=DIRECTION('',(0.666666666666667,0.,0.74535599249993));
#500=DIRECTION('',(-0.666666666666667,0.,-0.74535599249993));
#501=DIRECTION('',(-0.74535599249993,0.,0.666666666666667));
#502=DIRECTION('',(0.666666666666667,0.,0.74535599249993));
#503=DIRECTION('',(0.74535599249993,0.,-0.666666666666667));
#504=DIRECTION('',(0.666666666666667,0.,0.74535599249993));
#505=DIRECTION('',(0.74535599249993,0.,-0.666666666666667));
#506=DIRECTION('',(0.,-1.,0.));
#507=DIRECTION('',(0.,0.,-1.));
#508=DIRECTION('',(0.,0.,1.));
#509=DIRECTION('',(1.,0.,0.));
#510=DIRECTION('',(0.,0.,1.));
#511=DIRECTION('',(1.,0.,0.));
#512=DIRECTION('',(0.,0.,-1.));
#513=DIRECTION('',(-1.,0.,0.));
#514=DIRECTION('',(0.,0.,1.));
#515=DIRECTION('',(1.,0.,0.));
#516=DIRECTION('',(0.,0.,1.));
#517=DIRECTION('',(1.,0.,0.));
#518=DIRECTION('',(0.,-1.,0.));
#519=DIRECTION('',(0.,0.,-1.));
#520=DIRECTION('',(-1.,0.,1.38777878078145E-15));
#521=DIRECTION('',(1.38777878078145E-15,0.,1.));
#522=DIRECTION('',(-1.,0.,1.38777878078145E-15));
#523=DIRECTION('',(1.38777878078145E-15,0.,1.));
#524=DIRECTION('',(1.,0.,2.05173661992878E-16));
#525=DIRECTION('',(2.05173661992878E-16,0.,-1.));
#526=DIRECTION('',(-1.,0.,0.));
#527=DIRECTION('',(0.,0.,1.));
#528=DIRECTION('',(-1.,0.,0.));
#529=DIRECTION('',(0.,0.,1.));
#530=DIRECTION('',(0.,-1.,0.));
#531=DIRECTION('',(0.,0.,-1.));
#532=DIRECTION('',(0.,0.,-1.));
#533=DIRECTION('',(-1.,0.,0.));
#534=DIRECTION('',(0.,0.,-1.));
#535=DIRECTION('',(-1.,0.,0.));
#536=DIRECTION('',(0.,0.,1.));
#537=DIRECTION('',(1.,0.,0.));
#538=DIRECTION('',(0.,-3.46944695195361E-15,-1.));
#539=DIRECTION('',(0.,1.,-3.46944695195361E-15));
#540=DIRECTION('',(-3.46944695195361E-15,0.,-1.));
#541=DIRECTION('',(-1.,0.,3.46944695195361E-15));
#542=DIRECTION('',(0.,-1.,0.));
#543=DIRECTION('',(0.,0.,-1.));
#544=DIRECTION('',(0.666666666666665,2.08887373818895E-15,-0.745355992499931));
#545=DIRECTION('',(-0.745355992499931,0.,-0.666666666666665));
#546=DIRECTION('',(0.666666666666667,0.,-0.74535599249993));
#547=DIRECTION('',(-0.74535599249993,0.,-0.666666666666667));
#548=DIRECTION('',(-0.666666666666667,0.,0.74535599249993));
#549=DIRECTION('',(0.74535599249993,0.,0.666666666666667));
#550=CARTESIAN_POINT('',(0.,0.,0.));
#551=CARTESIAN_POINT('',(-0.02,-0.01,-0.0477586197853088));
#552=CARTESIAN_POINT('',(-0.02,0.,-0.0477586197853088));
#553=CARTESIAN_POINT('',(-0.02,0.,-0.0677586197853088));
#554=CARTESIAN_POINT('',(-0.02,0.,-0.0202586197853089));
#555=CARTESIAN_POINT('',(-0.02,-0.01,-0.0677586197853088));
#556=CARTESIAN_POINT('',(-0.02,-0.01,-0.0677586197853088));
#557=CARTESIAN_POINT('',(-0.02,-0.01,-0.0477586197853088));
#558=CARTESIAN_POINT('',(-0.02,-0.01,-0.0202586197853089));
#559=CARTESIAN_POINT('',(-0.02,-0.005,-0.0202586197853089));
#560=CARTESIAN_POINT('',(-0.02,-0.005,-0.0277586197853089));
#561=CARTESIAN_POINT('',(-0.02,-0.005,-0.0202586197853089));
#562=CARTESIAN_POINT('',(3.46944695195361E-18,-0.01,-0.0677586197853088));
#563=CARTESIAN_POINT('',(3.46944695195361E-18,0.,-0.0677586197853088));
#564=CARTESIAN_POINT('',(0.02,0.,-0.0677586197853088));
#565=CARTESIAN_POINT('',(0.02,-0.01,-0.0677586197853088));
#566=CARTESIAN_POINT('',(0.02,-0.01,-0.0677586197853088));
#567=CARTESIAN_POINT('',(3.46944695195361E-18,-0.01,-0.0677586197853088));
#568=CARTESIAN_POINT('',(0.02,-0.01,-0.0477586197853088));
#569=CARTESIAN_POINT('',(0.02,0.,-0.0477586197853088));
#570=CARTESIAN_POINT('',(0.02,0.,-0.0202586197853089));
#571=CARTESIAN_POINT('',(0.02,-0.005,-0.0202586197853089));
#572=CARTESIAN_POINT('',(0.02,-0.005,-0.0277586197853089));
#573=CARTESIAN_POINT('',(0.02,-0.005,-0.0202586197853089));
#574=CARTESIAN_POINT('',(0.02,-0.01,-0.0202586197853089));
#575=CARTESIAN_POINT('',(0.02,-0.01,-0.0477586197853088));
#576=CARTESIAN_POINT('',(-0.01,-0.01,-0.0397586197853088));
#577=CARTESIAN_POINT('',(-0.01,-0.01,-0.0397586197853088));
#578=CARTESIAN_POINT('',(-0.01,-0.01,-0.0461086197853088));
#579=CARTESIAN_POINT('',(-0.01,0.,-0.0397586197853088));
#580=CARTESIAN_POINT('',(-0.01,0.,-0.0461086197853088));
#581=CARTESIAN_POINT('',(0.01,-0.01,-0.0397586197853088));
#582=CARTESIAN_POINT('',(0.01,-0.01,-0.0397586197853088));
#583=CARTESIAN_POINT('',(0.01,-0.01,-0.0461086197853088));
#584=CARTESIAN_POINT('',(0.01,0.,-0.0397586197853088));
#585=CARTESIAN_POINT('',(0.01,0.,-0.0461086197853088));
#586=CARTESIAN_POINT('',(0.,-0.01,-0.0577586197853088));
#587=CARTESIAN_POINT('',(0.,-0.01,-0.0577586197853088));
#588=CARTESIAN_POINT('',(0.,-0.01,-0.0641086197853088));
#589=CARTESIAN_POINT('',(0.,0.,-0.0577586197853088));
#590=CARTESIAN_POINT('',(0.,0.,-0.0641086197853088));
#591=CARTESIAN_POINT('',(-1.04083408558608E-17,-0.01,-0.0209881099540604));
#592=CARTESIAN_POINT('',(-0.0107486245319453,-0.01,-0.030601972001281));
#593=CARTESIAN_POINT('',(-0.0443059719847525,-0.01,0.00691628302324719));
#594=CARTESIAN_POINT('',(0.0443059719847525,-0.01,0.00691628302324718));
#595=CARTESIAN_POINT('',(0.0443059719847525,-0.01,0.00691628302324719));
#596=CARTESIAN_POINT('',(0.0422745166004061,-0.01,0.00873327195630979));
#597=CARTESIAN_POINT('',(0.045,-0.01,0.00873327195630979));
#598=CARTESIAN_POINT('',(0.045,-0.01,0.0180569164775941));
#599=CARTESIAN_POINT('',(0.045,-0.01,0.0180569164775941));
#600=CARTESIAN_POINT('',(0.0422745166004061,-0.01,0.0180569164775941));
#601=CARTESIAN_POINT('',(0.0422745166004061,-0.01,0.020782399877188));
#602=CARTESIAN_POINT('',(-1.89785493212476E-17,-0.01,0.020782399877188));
#603=CARTESIAN_POINT('',(-0.0422745166004061,-0.01,0.020782399877188));
#604=CARTESIAN_POINT('',(-0.0422745166004061,-0.01,0.0180569164775941));
#605=CARTESIAN_POINT('',(-0.045,-0.01,0.0180569164775941));
#606=CARTESIAN_POINT('',(-0.045,-0.01,-0.0209881099540604));
#607=CARTESIAN_POINT('',(-0.045,-0.01,0.00873327195630977));
#608=CARTESIAN_POINT('',(-0.0422745166004061,-0.01,0.00873327195630976));
#609=CARTESIAN_POINT('',(-1.04083408558608E-17,0.,-0.0209881099540604));
#610=CARTESIAN_POINT('',(-0.0443059719847525,0.,0.00691628302324719));
#611=CARTESIAN_POINT('',(-0.0443059719847525,0.,0.00691628302324719));
#612=CARTESIAN_POINT('',(-0.0422745166004061,0.,0.00873327195630976));
#613=CARTESIAN_POINT('',(-0.045,0.,0.00873327195630977));
#614=CARTESIAN_POINT('',(-0.045,0.,0.0180569164775941));
#615=CARTESIAN_POINT('',(-0.045,0.,0.0180569164775941));
#616=CARTESIAN_POINT('',(-0.0422745166004061,0.,0.0180569164775941));
#617=CARTESIAN_POINT('',(-0.0422745166004061,0.,0.020782399877188));
#618=CARTESIAN_POINT('',(0.0422745166004061,0.,0.020782399877188));
#619=CARTESIAN_POINT('',(0.0422745166004061,0.,0.020782399877188));
#620=CARTESIAN_POINT('',(0.0422745166004061,0.,0.0180569164775941));
#621=CARTESIAN_POINT('',(0.045,0.,0.0180569164775941));
#622=CARTESIAN_POINT('',(0.045,0.,-0.0209881099540604));
#623=CARTESIAN_POINT('',(0.045,0.,0.00873327195630979));
#624=CARTESIAN_POINT('',(0.0422745166004061,0.,0.00873327195630979));
#625=CARTESIAN_POINT('',(0.0443059719847525,0.,0.00691628302324718));
#626=CARTESIAN_POINT('',(0.0107486245319453,0.,-0.030601972001281));
#627=CARTESIAN_POINT('',(0.0107486245319453,-0.005,-0.030601972001281));
#628=CARTESIAN_POINT('',(0.0443059719847525,-0.005,0.00691628302324718));
#629=CARTESIAN_POINT('',(0.0480327519472521,-0.005,0.00358294968991385));
#630=CARTESIAN_POINT('',(0.0443059719847525,-0.005,0.00691628302324719));
#631=CARTESIAN_POINT('',(0.0422745166004061,-0.005,0.00873327195630979));
#632=CARTESIAN_POINT('',(0.045,-0.005,0.00873327195630979));
#633=CARTESIAN_POINT('',(0.05,-0.005,0.00873327195630979));
#634=CARTESIAN_POINT('',(0.045,-0.005,0.00873327195630979));
#635=CARTESIAN_POINT('',(0.045,-0.005,-0.0209881099540604));
#636=CARTESIAN_POINT('',(0.045,-0.005,0.0180569164775941));
#637=CARTESIAN_POINT('',(0.05,-0.005,0.0180569164775941));
#638=CARTESIAN_POINT('',(0.045,-0.005,0.0180569164775941));
#639=CARTESIAN_POINT('',(0.0422745166004061,-0.005,0.0180569164775941));
#640=CARTESIAN_POINT('',(0.0422745166004061,-0.005,0.020782399877188));
#641=CARTESIAN_POINT('',(0.0422745166004061,-0.005,0.025782399877188));
#642=CARTESIAN_POINT('',(0.0422745166004061,-0.005,0.020782399877188));
#643=CARTESIAN_POINT('',(-5.91302559394284E-18,-0.005,0.020782399877188));
#644=CARTESIAN_POINT('',(-0.0422745166004061,-0.005,0.020782399877188));
#645=CARTESIAN_POINT('',(-0.0422745166004061,-0.005,0.025782399877188));
#646=CARTESIAN_POINT('',(-0.0422745166004061,-0.005,0.020782399877188));
#647=CARTESIAN_POINT('',(-0.0422745166004061,-0.005,0.0180569164775941));
#648=CARTESIAN_POINT('',(-0.045,-0.005,0.0180569164775941));
#649=CARTESIAN_POINT('',(-0.05,-0.005,0.0180569164775941));
#650=CARTESIAN_POINT('',(-0.045,-0.005,0.0180569164775941));
#651=CARTESIAN_POINT('',(-0.045,-0.005,0.0133950942169519));
#652=CARTESIAN_POINT('',(-0.045,-0.005,0.00873327195630979));
#653=CARTESIAN_POINT('',(-0.05,-0.005,0.00873327195630979));
#654=CARTESIAN_POINT('',(-0.045,-0.005,0.00873327195630977));
#655=CARTESIAN_POINT('',(-0.0422745166004061,-0.005,0.00873327195630976));
#656=CARTESIAN_POINT('',(-0.0443059719847525,-0.005,0.00691628302324718));
#657=CARTESIAN_POINT('',(-0.0480327519472522,-0.005,0.00358294968991385));
#658=CARTESIAN_POINT('',(-0.0443059719847525,-0.005,0.00691628302324719));
#659=CARTESIAN_POINT('',(-0.0302895960111264,-0.005,-0.00875450171436416));
#660=MECHANICAL_DESIGN_GEOMETRIC_PRESENTATION_REPRESENTATION('',(#365),
#661);
#661=(
GEOMETRIC_REPRESENTATION_CONTEXT(3)
GLOBAL_UNCERTAINTY_ASSIGNED_CONTEXT((#662))
GLOBAL_UNIT_ASSIGNED_CONTEXT((#665,#664,#663))
REPRESENTATION_CONTEXT('Part 1','TOP_LEVEL_ASSEMBLY_PART')
);
#662=UNCERTAINTY_MEASURE_WITH_UNIT(LENGTH_MEASURE(5.E-6),#665,
'DISTANCE_ACCURACY_VALUE','Maximum Tolerance applied to model');
#663=(
NAMED_UNIT(*)
SI_UNIT($,.STERADIAN.)
SOLID_ANGLE_UNIT()
);
#664=(
NAMED_UNIT(*)
PLANE_ANGLE_UNIT()
SI_UNIT($,.RADIAN.)
);
#665=(
LENGTH_UNIT()
NAMED_UNIT(*)
SI_UNIT($,.METRE.)
);
#666=PRODUCT_DEFINITION_SHAPE('','',#667);
#667=PRODUCT_DEFINITION('','',#669,#668);
#668=PRODUCT_DEFINITION_CONTEXT('',#675,'design');
#669=PRODUCT_DEFINITION_FORMATION_WITH_SPECIFIED_SOURCE('','',#671,
 .NOT_KNOWN.);
#670=PRODUCT_RELATED_PRODUCT_CATEGORY('','',(#671));
#671=PRODUCT('Part 1','Part 1','Part 1',(#673));
#672=PRODUCT_CATEGORY('','');
#673=PRODUCT_CONTEXT('',#675,'mechanical');
#674=APPLICATION_PROTOCOL_DEFINITION('international standard',
'ap242_managed_model_based_3d_engineering',2011,#675);
#675=APPLICATION_CONTEXT('managed model based 3d engineering');
ENDSEC;
END-ISO-10303-21;
