ISO-10303-21;
HEADER;
/* Generated by software containing ST-Developer
 * from STEP Tools, Inc. (www.steptools.com) 
 */

FILE_DESCRIPTION(
/* description */ (''),
/* implementation_level */ '2;1');

FILE_NAME(
/* name */ 'Evaporateur_Haut.step',
/* time_stamp */ '2024-04-17T21:17:53+02:00',
/* author */ (''),
/* organization */ (''),
/* preprocessor_version */ 'ST-DEVELOPER v20',
/* originating_system */ 'Autodesk Translation Framework v12.20.1.177',

/* authorisation */ '');

FILE_SCHEMA (('AUTOMOTIVE_DESIGN { 1 0 10303 214 3 1 1 }'));
ENDSEC;

DATA;
#10=MECHANICAL_DESIGN_GEOMETRIC_PRESENTATION_REPRESENTATION('',(#17),#190);
#11=ITEM_DEFINED_TRANSFORMATION($,$,#110,#124);
#12=(
REPRESENTATION_RELATIONSHIP($,$,#201,#200)
REPRESENTATION_RELATIONSHIP_WITH_TRANSFORMATION(#11)
SHAPE_REPRESENTATION_RELATIONSHIP()
);
#13=CONTEXT_DEPENDENT_SHAPE_REPRESENTATION(#12,#199);
#14=NEXT_ASSEMBLY_USAGE_OCCURRENCE('Support_Haut:1','Support_Haut:1',
'Support_Haut:1',#203,#204,'Support_Haut:1');
#15=SHAPE_REPRESENTATION_RELATIONSHIP('SRR','None',#201,#16);
#16=ADVANCED_BREP_SHAPE_REPRESENTATION('',(#18),#189);
#17=STYLED_ITEM('',(#215),#18);
#18=MANIFOLD_SOLID_BREP('Support_Haut',#96);
#19=FACE_BOUND('',#35,.T.);
#20=FACE_BOUND('',#37,.T.);
#21=PLANE('',#114);
#22=PLANE('',#115);
#23=PLANE('',#117);
#24=PLANE('',#120);
#25=FACE_OUTER_BOUND('',#32,.T.);
#26=FACE_OUTER_BOUND('',#33,.T.);
#27=FACE_OUTER_BOUND('',#34,.T.);
#28=FACE_OUTER_BOUND('',#36,.T.);
#29=FACE_OUTER_BOUND('',#38,.T.);
#30=FACE_OUTER_BOUND('',#39,.T.);
#31=FACE_OUTER_BOUND('',#40,.T.);
#32=EDGE_LOOP('',(#68,#69,#70,#71));
#33=EDGE_LOOP('',(#72));
#34=EDGE_LOOP('',(#73));
#35=EDGE_LOOP('',(#74));
#36=EDGE_LOOP('',(#75));
#37=EDGE_LOOP('',(#76));
#38=EDGE_LOOP('',(#77));
#39=EDGE_LOOP('',(#78,#79,#80,#81));
#40=EDGE_LOOP('',(#82,#83,#84,#85));
#41=LINE('',#166,#44);
#42=LINE('',#181,#45);
#43=LINE('',#183,#46);
#44=VECTOR('',#133,4.);
#45=VECTOR('',#154,8.);
#46=VECTOR('',#157,10.);
#47=CIRCLE('',#112,3.38975);
#48=CIRCLE('',#113,3.38975);
#49=CIRCLE('',#116,10.);
#50=CIRCLE('',#118,10.);
#51=CIRCLE('',#119,8.);
#52=CIRCLE('',#121,8.);
#53=VERTEX_POINT('',#163);
#54=VERTEX_POINT('',#165);
#55=VERTEX_POINT('',#170);
#56=VERTEX_POINT('',#173);
#57=VERTEX_POINT('',#175);
#58=VERTEX_POINT('',#178);
#59=EDGE_CURVE('',#53,#53,#47,.T.);
#60=EDGE_CURVE('',#53,#54,#41,.T.);
#61=EDGE_CURVE('',#54,#54,#48,.T.);
#62=EDGE_CURVE('',#55,#55,#49,.T.);
#63=EDGE_CURVE('',#56,#56,#50,.T.);
#64=EDGE_CURVE('',#57,#57,#51,.T.);
#65=EDGE_CURVE('',#58,#58,#52,.T.);
#66=EDGE_CURVE('',#57,#58,#42,.T.);
#67=EDGE_CURVE('',#56,#55,#43,.T.);
#68=ORIENTED_EDGE('',*,*,#59,.F.);
#69=ORIENTED_EDGE('',*,*,#60,.T.);
#70=ORIENTED_EDGE('',*,*,#61,.T.);
#71=ORIENTED_EDGE('',*,*,#60,.F.);
#72=ORIENTED_EDGE('',*,*,#61,.F.);
#73=ORIENTED_EDGE('',*,*,#62,.T.);
#74=ORIENTED_EDGE('',*,*,#59,.T.);
#75=ORIENTED_EDGE('',*,*,#63,.F.);
#76=ORIENTED_EDGE('',*,*,#64,.F.);
#77=ORIENTED_EDGE('',*,*,#65,.T.);
#78=ORIENTED_EDGE('',*,*,#64,.T.);
#79=ORIENTED_EDGE('',*,*,#66,.T.);
#80=ORIENTED_EDGE('',*,*,#65,.F.);
#81=ORIENTED_EDGE('',*,*,#66,.F.);
#82=ORIENTED_EDGE('',*,*,#63,.T.);
#83=ORIENTED_EDGE('',*,*,#67,.T.);
#84=ORIENTED_EDGE('',*,*,#62,.F.);
#85=ORIENTED_EDGE('',*,*,#67,.F.);
#86=CYLINDRICAL_SURFACE('',#111,3.38975);
#87=CYLINDRICAL_SURFACE('',#122,8.);
#88=CYLINDRICAL_SURFACE('',#123,10.);
#89=ADVANCED_FACE('',(#25),#86,.F.);
#90=ADVANCED_FACE('',(#26),#21,.T.);
#91=ADVANCED_FACE('',(#27,#19),#22,.T.);
#92=ADVANCED_FACE('',(#28,#20),#23,.F.);
#93=ADVANCED_FACE('',(#29),#24,.F.);
#94=ADVANCED_FACE('',(#30),#87,.F.);
#95=ADVANCED_FACE('',(#31),#88,.T.);
#96=CLOSED_SHELL('',(#89,#90,#91,#92,#93,#94,#95));
#97=DERIVED_UNIT_ELEMENT(#99,1.);
#98=DERIVED_UNIT_ELEMENT(#192,-3.);
#99=(
MASS_UNIT()
NAMED_UNIT(*)
SI_UNIT(.KILO.,.GRAM.)
);
#100=DERIVED_UNIT((#97,#98));
#101=MEASURE_REPRESENTATION_ITEM('density measure',
POSITIVE_RATIO_MEASURE(7850.),#100);
#102=PROPERTY_DEFINITION_REPRESENTATION(#107,#104);
#103=PROPERTY_DEFINITION_REPRESENTATION(#108,#105);
#104=REPRESENTATION('material name',(#106),#189);
#105=REPRESENTATION('density',(#101),#189);
#106=DESCRIPTIVE_REPRESENTATION_ITEM('Acier','Acier');
#107=PROPERTY_DEFINITION('material property','material name',#204);
#108=PROPERTY_DEFINITION('material property','density of part',#204);
#109=AXIS2_PLACEMENT_3D('',#160,#125,#126);
#110=AXIS2_PLACEMENT_3D('',#161,#127,#128);
#111=AXIS2_PLACEMENT_3D('',#162,#129,#130);
#112=AXIS2_PLACEMENT_3D('',#164,#131,#132);
#113=AXIS2_PLACEMENT_3D('',#167,#134,#135);
#114=AXIS2_PLACEMENT_3D('',#168,#136,#137);
#115=AXIS2_PLACEMENT_3D('',#169,#138,#139);
#116=AXIS2_PLACEMENT_3D('',#171,#140,#141);
#117=AXIS2_PLACEMENT_3D('',#172,#142,#143);
#118=AXIS2_PLACEMENT_3D('',#174,#144,#145);
#119=AXIS2_PLACEMENT_3D('',#176,#146,#147);
#120=AXIS2_PLACEMENT_3D('',#177,#148,#149);
#121=AXIS2_PLACEMENT_3D('',#179,#150,#151);
#122=AXIS2_PLACEMENT_3D('',#180,#152,#153);
#123=AXIS2_PLACEMENT_3D('',#182,#155,#156);
#124=AXIS2_PLACEMENT_3D('',#184,#158,#159);
#125=DIRECTION('axis',(0.,0.,1.));
#126=DIRECTION('refdir',(1.,0.,0.));
#127=DIRECTION('axis',(0.,0.,1.));
#128=DIRECTION('refdir',(1.,0.,0.));
#129=DIRECTION('center_axis',(0.,0.,-1.));
#130=DIRECTION('ref_axis',(-1.,0.,0.));
#131=DIRECTION('center_axis',(0.,0.,-1.));
#132=DIRECTION('ref_axis',(-1.,0.,0.));
#133=DIRECTION('',(0.,0.,-1.));
#134=DIRECTION('center_axis',(0.,0.,-1.));
#135=DIRECTION('ref_axis',(-1.,0.,0.));
#136=DIRECTION('center_axis',(0.,0.,1.));
#137=DIRECTION('ref_axis',(-1.,0.,0.));
#138=DIRECTION('center_axis',(0.,0.,1.));
#139=DIRECTION('ref_axis',(-1.,0.,0.));
#140=DIRECTION('center_axis',(0.,0.,1.));
#141=DIRECTION('ref_axis',(-1.,0.,0.));
#142=DIRECTION('center_axis',(0.,0.,1.));
#143=DIRECTION('ref_axis',(-1.,0.,0.));
#144=DIRECTION('center_axis',(0.,0.,1.));
#145=DIRECTION('ref_axis',(-1.,0.,0.));
#146=DIRECTION('center_axis',(0.,0.,-1.));
#147=DIRECTION('ref_axis',(-1.,0.,0.));
#148=DIRECTION('center_axis',(0.,0.,1.));
#149=DIRECTION('ref_axis',(-1.,0.,0.));
#150=DIRECTION('center_axis',(0.,0.,-1.));
#151=DIRECTION('ref_axis',(-1.,0.,0.));
#152=DIRECTION('center_axis',(0.,0.,-1.));
#153=DIRECTION('ref_axis',(-1.,0.,0.));
#154=DIRECTION('',(0.,0.,1.));
#155=DIRECTION('center_axis',(0.,0.,-1.));
#156=DIRECTION('ref_axis',(-1.,0.,0.));
#157=DIRECTION('',(0.,0.,1.));
#158=DIRECTION('',(0.,0.,1.));
#159=DIRECTION('',(1.,0.,0.));
#160=CARTESIAN_POINT('',(0.,0.,0.));
#161=CARTESIAN_POINT('',(0.,0.,0.));
#162=CARTESIAN_POINT('Origin',(0.,0.,115.));
#163=CARTESIAN_POINT('',(3.38975,-4.15124648740974E-16,115.));
#164=CARTESIAN_POINT('Origin',(0.,0.,115.));
#165=CARTESIAN_POINT('',(3.38975,-4.15124648740974E-16,105.));
#166=CARTESIAN_POINT('',(3.38975,-4.15124648740974E-16,115.));
#167=CARTESIAN_POINT('Origin',(0.,0.,105.));
#168=CARTESIAN_POINT('Origin',(0.,0.,105.));
#169=CARTESIAN_POINT('Origin',(0.,0.,115.));
#170=CARTESIAN_POINT('',(10.,1.22464679914735E-15,115.));
#171=CARTESIAN_POINT('Origin',(0.,0.,115.));
#172=CARTESIAN_POINT('Origin',(0.,0.,95.));
#173=CARTESIAN_POINT('',(10.,1.22464679914735E-15,95.));
#174=CARTESIAN_POINT('Origin',(0.,0.,95.));
#175=CARTESIAN_POINT('',(8.,9.79717439317883E-16,95.));
#176=CARTESIAN_POINT('Origin',(0.,0.,95.));
#177=CARTESIAN_POINT('Origin',(0.,0.,100.));
#178=CARTESIAN_POINT('',(8.,9.79717439317883E-16,100.));
#179=CARTESIAN_POINT('Origin',(0.,0.,100.));
#180=CARTESIAN_POINT('Origin',(0.,0.,100.));
#181=CARTESIAN_POINT('',(8.,-9.79717439317883E-16,100.));
#182=CARTESIAN_POINT('Origin',(0.,0.,100.));
#183=CARTESIAN_POINT('',(10.,-1.22464679914735E-15,100.));
#184=CARTESIAN_POINT('',(0.,0.,0.));
#185=UNCERTAINTY_MEASURE_WITH_UNIT(LENGTH_MEASURE(0.01),#191,
'DISTANCE_ACCURACY_VALUE',
'Maximum model space distance between geometric entities at asserted c
onnectivities');
#186=UNCERTAINTY_MEASURE_WITH_UNIT(LENGTH_MEASURE(0.01),#191,
'DISTANCE_ACCURACY_VALUE',
'Maximum model space distance between geometric entities at asserted c
onnectivities');
#187=UNCERTAINTY_MEASURE_WITH_UNIT(LENGTH_MEASURE(0.01),#191,
'DISTANCE_ACCURACY_VALUE',
'Maximum model space distance between geometric entities at asserted c
onnectivities');
#188=(
GEOMETRIC_REPRESENTATION_CONTEXT(3)
GLOBAL_UNCERTAINTY_ASSIGNED_CONTEXT((#185))
GLOBAL_UNIT_ASSIGNED_CONTEXT((#191,#193,#194))
REPRESENTATION_CONTEXT('','3D')
);
#189=(
GEOMETRIC_REPRESENTATION_CONTEXT(3)
GLOBAL_UNCERTAINTY_ASSIGNED_CONTEXT((#186))
GLOBAL_UNIT_ASSIGNED_CONTEXT((#191,#193,#194))
REPRESENTATION_CONTEXT('','3D')
);
#190=(
GEOMETRIC_REPRESENTATION_CONTEXT(3)
GLOBAL_UNCERTAINTY_ASSIGNED_CONTEXT((#187))
GLOBAL_UNIT_ASSIGNED_CONTEXT((#191,#193,#194))
REPRESENTATION_CONTEXT('','3D')
);
#191=(
LENGTH_UNIT()
NAMED_UNIT(*)
SI_UNIT(.MILLI.,.METRE.)
);
#192=(
LENGTH_UNIT()
NAMED_UNIT(*)
SI_UNIT($,.METRE.)
);
#193=(
NAMED_UNIT(*)
PLANE_ANGLE_UNIT()
SI_UNIT($,.RADIAN.)
);
#194=(
NAMED_UNIT(*)
SI_UNIT($,.STERADIAN.)
SOLID_ANGLE_UNIT()
);
#195=SHAPE_DEFINITION_REPRESENTATION(#197,#200);
#196=SHAPE_DEFINITION_REPRESENTATION(#198,#201);
#197=PRODUCT_DEFINITION_SHAPE('',$,#203);
#198=PRODUCT_DEFINITION_SHAPE('',$,#204);
#199=PRODUCT_DEFINITION_SHAPE($,$,#14);
#200=SHAPE_REPRESENTATION('',(#109,#124),#188);
#201=SHAPE_REPRESENTATION('',(#110),#189);
#202=PRODUCT_DEFINITION_CONTEXT('part definition',#210,'design');
#203=PRODUCT_DEFINITION('Support_Evaporateur','Support_Evaporateur v14',
#205,#202);
#204=PRODUCT_DEFINITION('Support_Haut','Support_Haut',#206,#202);
#205=PRODUCT_DEFINITION_FORMATION('',$,#212);
#206=PRODUCT_DEFINITION_FORMATION('',$,#213);
#207=PRODUCT_RELATED_PRODUCT_CATEGORY('Support_Evaporateur v14',
'Support_Evaporateur v14',(#212));
#208=PRODUCT_RELATED_PRODUCT_CATEGORY('Support_Haut','Support_Haut',(#213));
#209=APPLICATION_PROTOCOL_DEFINITION('international standard',
'automotive_design',2009,#210);
#210=APPLICATION_CONTEXT(
'Core Data for Automotive Mechanical Design Process');
#211=PRODUCT_CONTEXT('part definition',#210,'mechanical');
#212=PRODUCT('Support_Evaporateur','Support_Evaporateur v14',$,(#211));
#213=PRODUCT('Support_Haut','Support_Haut',$,(#211));
#214=PRESENTATION_STYLE_ASSIGNMENT((#216));
#215=PRESENTATION_STYLE_ASSIGNMENT((#217));
#216=SURFACE_STYLE_USAGE(.BOTH.,#218);
#217=SURFACE_STYLE_USAGE(.BOTH.,#219);
#218=SURFACE_SIDE_STYLE('',(#220));
#219=SURFACE_SIDE_STYLE('',(#221));
#220=SURFACE_STYLE_FILL_AREA(#222);
#221=SURFACE_STYLE_FILL_AREA(#223);
#222=FILL_AREA_STYLE('Acier - Satin\X\E9',(#224));
#223=FILL_AREA_STYLE('Cuivre - Brut',(#225));
#224=FILL_AREA_STYLE_COLOUR('Acier - Satin\X\E9',#226);
#225=FILL_AREA_STYLE_COLOUR('Cuivre - Brut',#227);
#226=COLOUR_RGB('Acier - Satin\X\E9',0.627450980392157,0.627450980392157,
0.627450980392157);
#227=COLOUR_RGB('Cuivre - Brut',0.,0.,0.);
ENDSEC;
END-ISO-10303-21;
