ISO-10303-21;
HEADER;
/* Generated by software containing ST-Developer
 * from STEP Tools, Inc. (www.steptools.com) 
 */
/* OPTION: using custom schema-name function */

FILE_DESCRIPTION(
/* description */ (''),
/* implementation_level */ '2;1');

FILE_NAME(
/* name */ 'LENTIL~2',
/* time_stamp */ '2023-02-24T08:43:19+01:00',
/* author */ (''),
/* organization */ (''),
/* preprocessor_version */ 'ST-DEVELOPER v16.5',
/* originating_system */ '',
/* authorisation */ '');

FILE_SCHEMA (('AUTOMOTIVE_DESIGN_CC2'));
ENDSEC;

DATA;
#10=SHAPE_REPRESENTATION_RELATIONSHIP('','',#155,#13);
#11=PRESENTATION_LAYER_ASSIGNMENT('cl\X\E9 lentilles','',(#12));
#12=MANIFOLD_SOLID_BREP('brep_1',#14);
#13=ADVANCED_BREP_SHAPE_REPRESENTATION('brep_rep_0',(#12,#160),#154);
#14=CLOSED_SHELL('',(#16,#17,#18,#19,#20,#21,#22,#23,#24));
#15=FACE_BOUND('',#37,.T.);
#16=ADVANCED_FACE('',(#25),#131,.T.);
#17=ADVANCED_FACE('',(#26),#132,.T.);
#18=ADVANCED_FACE('',(#27,#15),#128,.T.);
#19=ADVANCED_FACE('',(#28),#129,.T.);
#20=ADVANCED_FACE('',(#29),#133,.T.);
#21=ADVANCED_FACE('',(#30),#134,.T.);
#22=ADVANCED_FACE('',(#31),#130,.T.);
#23=ADVANCED_FACE('',(#32),#135,.T.);
#24=ADVANCED_FACE('',(#33),#136,.T.);
#25=FACE_OUTER_BOUND('',#34,.T.);
#26=FACE_OUTER_BOUND('',#35,.T.);
#27=FACE_OUTER_BOUND('',#36,.T.);
#28=FACE_OUTER_BOUND('',#38,.T.);
#29=FACE_OUTER_BOUND('',#39,.T.);
#30=FACE_OUTER_BOUND('',#40,.T.);
#31=FACE_OUTER_BOUND('',#41,.T.);
#32=FACE_OUTER_BOUND('',#42,.T.);
#33=FACE_OUTER_BOUND('',#43,.T.);
#34=EDGE_LOOP('',(#44,#45,#46,#47,#48));
#35=EDGE_LOOP('',(#49,#50,#51));
#36=EDGE_LOOP('',(#52,#53,#54));
#37=EDGE_LOOP('',(#55,#56));
#38=EDGE_LOOP('',(#57,#58));
#39=EDGE_LOOP('',(#59,#60,#61,#62));
#40=EDGE_LOOP('',(#63,#64,#65,#66));
#41=EDGE_LOOP('',(#67,#68,#69,#70));
#42=EDGE_LOOP('',(#71,#72,#73,#74,#75));
#43=EDGE_LOOP('',(#76,#77,#78,#79));
#44=ORIENTED_EDGE('',*,*,#87,.T.);
#45=ORIENTED_EDGE('',*,*,#92,.T.);
#46=ORIENTED_EDGE('',*,*,#94,.T.);
#47=ORIENTED_EDGE('',*,*,#81,.F.);
#48=ORIENTED_EDGE('',*,*,#80,.T.);
#49=ORIENTED_EDGE('',*,*,#83,.T.);
#50=ORIENTED_EDGE('',*,*,#94,.F.);
#51=ORIENTED_EDGE('',*,*,#93,.F.);
#52=ORIENTED_EDGE('',*,*,#80,.F.);
#53=ORIENTED_EDGE('',*,*,#91,.F.);
#54=ORIENTED_EDGE('',*,*,#90,.F.);
#55=ORIENTED_EDGE('',*,*,#97,.F.);
#56=ORIENTED_EDGE('',*,*,#86,.F.);
#57=ORIENTED_EDGE('',*,*,#84,.T.);
#58=ORIENTED_EDGE('',*,*,#96,.T.);
#59=ORIENTED_EDGE('',*,*,#84,.F.);
#60=ORIENTED_EDGE('',*,*,#85,.T.);
#61=ORIENTED_EDGE('',*,*,#86,.T.);
#62=ORIENTED_EDGE('',*,*,#95,.F.);
#63=ORIENTED_EDGE('',*,*,#88,.T.);
#64=ORIENTED_EDGE('',*,*,#91,.T.);
#65=ORIENTED_EDGE('',*,*,#81,.T.);
#66=ORIENTED_EDGE('',*,*,#82,.T.);
#67=ORIENTED_EDGE('',*,*,#90,.T.);
#68=ORIENTED_EDGE('',*,*,#88,.F.);
#69=ORIENTED_EDGE('',*,*,#89,.T.);
#70=ORIENTED_EDGE('',*,*,#87,.F.);
#71=ORIENTED_EDGE('',*,*,#93,.T.);
#72=ORIENTED_EDGE('',*,*,#92,.F.);
#73=ORIENTED_EDGE('',*,*,#89,.F.);
#74=ORIENTED_EDGE('',*,*,#82,.F.);
#75=ORIENTED_EDGE('',*,*,#83,.F.);
#76=ORIENTED_EDGE('',*,*,#95,.T.);
#77=ORIENTED_EDGE('',*,*,#97,.T.);
#78=ORIENTED_EDGE('',*,*,#85,.F.);
#79=ORIENTED_EDGE('',*,*,#96,.F.);
#80=EDGE_CURVE('',#116,#121,#103,.T.);
#81=EDGE_CURVE('',#116,#117,#98,.T.);
#82=EDGE_CURVE('',#117,#123,#104,.T.);
#83=EDGE_CURVE('',#118,#117,#105,.T.);
#84=EDGE_CURVE('',#119,#126,#106,.T.);
#85=EDGE_CURVE('',#119,#120,#107,.T.);
#86=EDGE_CURVE('',#120,#127,#108,.T.);
#87=EDGE_CURVE('',#121,#122,#99,.T.);
#88=EDGE_CURVE('',#123,#124,#100,.T.);
#89=EDGE_CURVE('',#123,#122,#101,.T.);
#90=EDGE_CURVE('',#121,#124,#102,.T.);
#91=EDGE_CURVE('',#124,#116,#109,.T.);
#92=EDGE_CURVE('',#122,#125,#110,.T.);
#93=EDGE_CURVE('',#118,#125,#111,.T.);
#94=EDGE_CURVE('',#125,#117,#112,.T.);
#95=EDGE_CURVE('',#126,#127,#113,.T.);
#96=EDGE_CURVE('',#126,#119,#114,.T.);
#97=EDGE_CURVE('',#127,#120,#115,.T.);
#98=B_SPLINE_CURVE_WITH_KNOTS('',1,(#279,#280),.UNSPECIFIED.,.F.,.F.,(2,
2),(0.,3.),.UNSPECIFIED.);
#99=B_SPLINE_CURVE_WITH_KNOTS('',1,(#299,#300),.UNSPECIFIED.,.F.,.F.,(2,
2),(-0.85965395004442,-0.583338767035489),.UNSPECIFIED.);
#100=B_SPLINE_CURVE_WITH_KNOTS('',1,(#301,#302),.UNSPECIFIED.,.F.,.F.,(2,
2),(0.583338767035489,0.85965395004442),.UNSPECIFIED.);
#101=B_SPLINE_CURVE_WITH_KNOTS('',3,(#303,#304,#305,#306,#307,#308,#309,
#310,#311,#312,#313),.UNSPECIFIED.,.F.,.F.,(4,2,3,2,4),(0.,4.35448750795774,
8.70897501591514,13.0634625238726,17.4179500318303),.UNSPECIFIED.);
#102=B_SPLINE_CURVE_WITH_KNOTS('',1,(#314,#315),.UNSPECIFIED.,.F.,.F.,(2,
2),(14.2360154831128,31.3078904604054),.UNSPECIFIED.);
#103=(
BOUNDED_CURVE()
B_SPLINE_CURVE(2,(#270,#271,#272,#273,#274,#275,#276,#277,#278),
 .UNSPECIFIED.,.F.,.F.)
B_SPLINE_CURVE_WITH_KNOTS((3,2,2,2,3),(0.,17.6543898896844,35.3087797793688,
52.9631696690532,70.6175595587376),.UNSPECIFIED.)
CURVE()
GEOMETRIC_REPRESENTATION_ITEM()
RATIONAL_B_SPLINE_CURVE((1.,0.866426173448949,1.,0.866426173448949,1.,0.866426173448949,
1.,0.866426173448949,1.))
REPRESENTATION_ITEM('')
);
#104=(
BOUNDED_CURVE()
B_SPLINE_CURVE(2,(#281,#282,#283),.UNSPECIFIED.,.F.,.F.)
B_SPLINE_CURVE_WITH_KNOTS((3,3),(-106.088855968266,-88.5157243936619),
 .UNSPECIFIED.)
CURVE()
GEOMETRIC_REPRESENTATION_ITEM()
RATIONAL_B_SPLINE_CURVE((1.,0.867625136875033,1.))
REPRESENTATION_ITEM('')
);
#105=(
BOUNDED_CURVE()
B_SPLINE_CURVE(2,(#284,#285,#286),.UNSPECIFIED.,.F.,.F.)
B_SPLINE_CURVE_WITH_KNOTS((3,3),(232.413329366818,250.304908024229),
 .UNSPECIFIED.)
CURVE()
GEOMETRIC_REPRESENTATION_ITEM()
RATIONAL_B_SPLINE_CURVE((1.,0.95465232488541,1.))
REPRESENTATION_ITEM('')
);
#106=(
BOUNDED_CURVE()
B_SPLINE_CURVE(2,(#287,#288,#289,#290,#291),.UNSPECIFIED.,.F.,.F.)
B_SPLINE_CURVE_WITH_KNOTS((3,2,3),(0.,1.96349540849362,3.92699081698724),
 .UNSPECIFIED.)
CURVE()
GEOMETRIC_REPRESENTATION_ITEM()
RATIONAL_B_SPLINE_CURVE((1.,0.707106781186548,1.,0.707106781186548,1.))
REPRESENTATION_ITEM('')
);
#107=(
BOUNDED_CURVE()
B_SPLINE_CURVE(1,(#292,#293),.UNSPECIFIED.,.F.,.F.)
B_SPLINE_CURVE_WITH_KNOTS((2,2),(0.,5.3080088492281),.UNSPECIFIED.)
CURVE()
GEOMETRIC_REPRESENTATION_ITEM()
RATIONAL_B_SPLINE_CURVE((1.,1.))
REPRESENTATION_ITEM('')
);
#108=(
BOUNDED_CURVE()
B_SPLINE_CURVE(2,(#294,#295,#296,#297,#298),.UNSPECIFIED.,.F.,.F.)
B_SPLINE_CURVE_WITH_KNOTS((3,2,3),(0.,1.96349540849362,3.92699081698724),
 .UNSPECIFIED.)
CURVE()
GEOMETRIC_REPRESENTATION_ITEM()
RATIONAL_B_SPLINE_CURVE((1.,0.707106781186548,1.,0.707106781186548,1.))
REPRESENTATION_ITEM('')
);
#109=(
BOUNDED_CURVE()
B_SPLINE_CURVE(2,(#316,#317,#318),.UNSPECIFIED.,.F.,.F.)
B_SPLINE_CURVE_WITH_KNOTS((3,3),(88.5157243936619,106.088855968266),
 .UNSPECIFIED.)
CURVE()
GEOMETRIC_REPRESENTATION_ITEM()
RATIONAL_B_SPLINE_CURVE((1.,0.867625136875033,1.))
REPRESENTATION_ITEM('')
);
#110=(
BOUNDED_CURVE()
B_SPLINE_CURVE(2,(#319,#320,#321),.UNSPECIFIED.,.F.,.F.)
B_SPLINE_CURVE_WITH_KNOTS((3,3),(-70.6175595587376,-53.0444279841332),
 .UNSPECIFIED.)
CURVE()
GEOMETRIC_REPRESENTATION_ITEM()
RATIONAL_B_SPLINE_CURVE((1.,0.867625136875033,1.))
REPRESENTATION_ITEM('')
);
#111=(
BOUNDED_CURVE()
B_SPLINE_CURVE(2,(#322,#323,#324),.UNSPECIFIED.,.F.,.F.)
B_SPLINE_CURVE_WITH_KNOTS((3,3),(232.413329366818,250.304908024229),
 .UNSPECIFIED.)
CURVE()
GEOMETRIC_REPRESENTATION_ITEM()
RATIONAL_B_SPLINE_CURVE((1.,0.95465232488541,1.))
REPRESENTATION_ITEM('')
);
#112=(
BOUNDED_CURVE()
B_SPLINE_CURVE(2,(#325,#326,#327,#328,#329),.UNSPECIFIED.,.F.,.F.)
B_SPLINE_CURVE_WITH_KNOTS((3,2,3),(-53.0444279841332,-26.5222139920666,
0.),.UNSPECIFIED.)
CURVE()
GEOMETRIC_REPRESENTATION_ITEM()
RATIONAL_B_SPLINE_CURVE((1.,0.707106781186548,1.,0.707106781186548,1.))
REPRESENTATION_ITEM('')
);
#113=(
BOUNDED_CURVE()
B_SPLINE_CURVE(1,(#330,#331),.UNSPECIFIED.,.F.,.F.)
B_SPLINE_CURVE_WITH_KNOTS((2,2),(0.,5.3080088492281),.UNSPECIFIED.)
CURVE()
GEOMETRIC_REPRESENTATION_ITEM()
RATIONAL_B_SPLINE_CURVE((1.,1.))
REPRESENTATION_ITEM('')
);
#114=(
BOUNDED_CURVE()
B_SPLINE_CURVE(2,(#332,#333,#334,#335,#336),.UNSPECIFIED.,.F.,.F.)
B_SPLINE_CURVE_WITH_KNOTS((3,2,3),(3.92699081698724,5.89048622548086,7.85398163397448),
 .UNSPECIFIED.)
CURVE()
GEOMETRIC_REPRESENTATION_ITEM()
RATIONAL_B_SPLINE_CURVE((1.,0.707106781186548,1.,0.707106781186548,1.))
REPRESENTATION_ITEM('')
);
#115=(
BOUNDED_CURVE()
B_SPLINE_CURVE(2,(#337,#338,#339,#340,#341),.UNSPECIFIED.,.F.,.F.)
B_SPLINE_CURVE_WITH_KNOTS((3,2,3),(3.92699081698724,5.89048622548086,7.85398163397448),
 .UNSPECIFIED.)
CURVE()
GEOMETRIC_REPRESENTATION_ITEM()
RATIONAL_B_SPLINE_CURVE((1.,0.707106781186548,1.,0.707106781186548,1.))
REPRESENTATION_ITEM('')
);
#116=VERTEX_POINT('',#258);
#117=VERTEX_POINT('',#259);
#118=VERTEX_POINT('',#260);
#119=VERTEX_POINT('',#261);
#120=VERTEX_POINT('',#262);
#121=VERTEX_POINT('',#263);
#122=VERTEX_POINT('',#264);
#123=VERTEX_POINT('',#265);
#124=VERTEX_POINT('',#266);
#125=VERTEX_POINT('',#267);
#126=VERTEX_POINT('',#268);
#127=VERTEX_POINT('',#269);
#128=PLANE('',#157);
#129=PLANE('',#158);
#130=PLANE('',#159);
#131=(
BOUNDED_SURFACE()
B_SPLINE_SURFACE(2,1,((#169,#170),(#171,#172),(#173,#174),(#175,#176),(#177,
#178),(#179,#180),(#181,#182),(#183,#184),(#185,#186)),.UNSPECIFIED.,.T.,
 .F.,.F.)
B_SPLINE_SURFACE_WITH_KNOTS((3,2,2,2,3),(2,2),(0.,26.5222139920666,53.0444279841332,
79.5666419761997,106.088855968266),(0.,3.),.UNSPECIFIED.)
GEOMETRIC_REPRESENTATION_ITEM()
RATIONAL_B_SPLINE_SURFACE(((1.,1.),(0.707106781186548,0.707106781186548),
(1.,1.),(0.707106781186548,0.707106781186548),(1.,1.),(0.707106781186548,
0.707106781186548),(1.,1.),(0.707106781186548,0.707106781186548),(1.,1.)))
REPRESENTATION_ITEM('')
SURFACE()
);
#132=(
BOUNDED_SURFACE()
B_SPLINE_SURFACE(2,2,((#187,#188,#189,#190,#191),(#192,#193,#194,#195,#196),
(#197,#198,#199,#200,#201)),.UNSPECIFIED.,.F.,.F.,.F.)
B_SPLINE_SURFACE_WITH_KNOTS((3,3),(3,2,3),(232.413329366818,250.304908024229),
(0.,26.5222139920666,53.0444279841332),.UNSPECIFIED.)
GEOMETRIC_REPRESENTATION_ITEM()
RATIONAL_B_SPLINE_SURFACE(((1.,0.707106781186548,1.,0.707106781186548,1.),
(0.95465232488541,0.675041132601976,0.95465232488541,0.675041132601976,
0.95465232488541),(1.,0.707106781186548,1.,0.707106781186548,1.)))
REPRESENTATION_ITEM('')
SURFACE()
);
#133=(
BOUNDED_SURFACE()
B_SPLINE_SURFACE(1,2,((#204,#205,#206,#207,#208),(#209,#210,#211,#212,#213)),
 .UNSPECIFIED.,.F.,.F.,.F.)
B_SPLINE_SURFACE_WITH_KNOTS((2,2),(3,2,3),(0.,8.18563308832058),(0.,1.96349540849362,
3.92699081698724),.UNSPECIFIED.)
GEOMETRIC_REPRESENTATION_ITEM()
RATIONAL_B_SPLINE_SURFACE(((1.,0.707106781186548,1.,0.707106781186548,1.),
(1.,0.707106781186548,1.,0.707106781186548,1.)))
REPRESENTATION_ITEM('')
SURFACE()
);
#134=(
BOUNDED_SURFACE()
B_SPLINE_SURFACE(2,1,((#214,#215),(#216,#217),(#218,#219),(#220,#221),(#222,
#223),(#224,#225),(#226,#227),(#228,#229),(#230,#231)),.UNSPECIFIED.,.T.,
 .F.,.F.)
B_SPLINE_SURFACE_WITH_KNOTS((3,2,2,2,3),(2,2),(0.,26.5222139920666,53.0444279841332,
79.5666419761997,106.088855968266),(0.,3.),.UNSPECIFIED.)
GEOMETRIC_REPRESENTATION_ITEM()
RATIONAL_B_SPLINE_SURFACE(((1.,1.),(0.707106781186548,0.707106781186548),
(1.,1.),(0.707106781186548,0.707106781186548),(1.,1.),(0.707106781186548,
0.707106781186548),(1.,1.),(0.707106781186548,0.707106781186548),(1.,1.)))
REPRESENTATION_ITEM('')
SURFACE()
);
#135=(
BOUNDED_SURFACE()
B_SPLINE_SURFACE(2,2,((#233,#234,#235,#236,#237),(#238,#239,#240,#241,#242),
(#243,#244,#245,#246,#247)),.UNSPECIFIED.,.F.,.F.,.F.)
B_SPLINE_SURFACE_WITH_KNOTS((3,3),(3,2,3),(232.413329366818,250.304908024229),
(53.0444279841332,79.5666419761998,106.088855968266),.UNSPECIFIED.)
GEOMETRIC_REPRESENTATION_ITEM()
RATIONAL_B_SPLINE_SURFACE(((1.,0.707106781186548,1.,0.707106781186548,1.),
(0.95465232488541,0.675041132601976,0.95465232488541,0.675041132601976,
0.95465232488541),(1.,0.707106781186548,1.,0.707106781186548,1.)))
REPRESENTATION_ITEM('')
SURFACE()
);
#136=(
BOUNDED_SURFACE()
B_SPLINE_SURFACE(1,2,((#248,#249,#250,#251,#252),(#253,#254,#255,#256,#257)),
 .UNSPECIFIED.,.F.,.F.,.F.)
B_SPLINE_SURFACE_WITH_KNOTS((2,2),(3,2,3),(0.,8.18563308832058),(3.92699081698724,
5.89048622548086,7.85398163397448),.UNSPECIFIED.)
GEOMETRIC_REPRESENTATION_ITEM()
RATIONAL_B_SPLINE_SURFACE(((1.,0.707106781186548,1.,0.707106781186548,1.),
(1.,0.707106781186548,1.,0.707106781186548,1.)))
REPRESENTATION_ITEM('')
SURFACE()
);
#137=SHAPE_DEFINITION_REPRESENTATION(#138,#155);
#138=PRODUCT_DEFINITION_SHAPE('Document','',#140);
#139=PRODUCT_DEFINITION_CONTEXT('3D Mechanical Parts',#144,'design');
#140=PRODUCT_DEFINITION('A','First version',#141,#139);
#141=PRODUCT_DEFINITION_FORMATION_WITH_SPECIFIED_SOURCE('A',
'First version',#146,.MADE.);
#142=PRODUCT_RELATED_PRODUCT_CATEGORY('tool','tool',(#146));
#143=APPLICATION_PROTOCOL_DEFINITION('Draft International Standard',
'automotive_design',1999,#144);
#144=APPLICATION_CONTEXT(
'data for automotive mechanical design processes');
#145=PRODUCT_CONTEXT('3D Mechanical Parts',#144,'mechanical');
#146=PRODUCT('Document','Document','Rhino converted to STEP',(#145));
#147=(
LENGTH_UNIT()
NAMED_UNIT(*)
SI_UNIT(.MILLI.,.METRE.)
);
#148=(
NAMED_UNIT(*)
PLANE_ANGLE_UNIT()
SI_UNIT($,.RADIAN.)
);
#149=DIMENSIONAL_EXPONENTS(0.,0.,0.,0.,0.,0.,0.);
#150=PLANE_ANGLE_MEASURE_WITH_UNIT(PLANE_ANGLE_MEASURE(0.01745329252),#148);
#151=(
CONVERSION_BASED_UNIT('DEGREES',#150)
NAMED_UNIT(#149)
PLANE_ANGLE_UNIT()
);
#152=(
NAMED_UNIT(*)
SI_UNIT($,.STERADIAN.)
SOLID_ANGLE_UNIT()
);
#153=UNCERTAINTY_MEASURE_WITH_UNIT(LENGTH_MEASURE(0.001),#147,
'DISTANCE_ACCURACY_VALUE',
'Maximum model space distance between geometric entities at asserted c
onnectivities');
#154=(
GEOMETRIC_REPRESENTATION_CONTEXT(3)
GLOBAL_UNCERTAINTY_ASSIGNED_CONTEXT((#153))
GLOBAL_UNIT_ASSIGNED_CONTEXT((#152,#151,#147))
REPRESENTATION_CONTEXT('ID1','3D')
);
#155=SHAPE_REPRESENTATION('Document',(#156,#160),#154);
#156=AXIS2_PLACEMENT_3D('',#168,#161,#162);
#157=AXIS2_PLACEMENT_3D('',#202,#163,$);
#158=AXIS2_PLACEMENT_3D('',#203,#164,$);
#159=AXIS2_PLACEMENT_3D('',#232,#165,$);
#160=AXIS2_PLACEMENT_3D('',#342,#166,#167);
#161=DIRECTION('',(0.,0.,1.));
#162=DIRECTION('',(1.,0.,0.));
#163=DIRECTION('',(0.,-1.,0.));
#164=DIRECTION('',(0.,-1.,0.));
#165=DIRECTION('',(-1.,0.,0.));
#166=DIRECTION('',(0.,0.,1.));
#167=DIRECTION('',(1.,0.,0.));
#168=CARTESIAN_POINT('',(0.,0.,0.));
#169=CARTESIAN_POINT('',(14.6197994709462,-2.86787800774336,12.0623036240942));
#170=CARTESIAN_POINT('',(14.6197994709462,0.143411410970192,12.0623036240942));
#171=CARTESIAN_POINT('',(31.5043653052599,-2.86787800774336,12.0623036240942));
#172=CARTESIAN_POINT('',(31.5043653052599,0.143411410970192,12.0623036240942));
#173=CARTESIAN_POINT('',(31.5043653052599,-2.86787800774336,-4.82226221021948));
#174=CARTESIAN_POINT('',(31.5043653052599,0.143411410970192,-4.82226221021948));
#175=CARTESIAN_POINT('',(31.5043653052599,-2.86787800774336,-21.7068280445332));
#176=CARTESIAN_POINT('',(31.5043653052599,0.143411410970192,-21.7068280445332));
#177=CARTESIAN_POINT('',(14.6197994709462,-2.86787800774336,-21.7068280445332));
#178=CARTESIAN_POINT('',(14.6197994709462,0.143411410970192,-21.7068280445332));
#179=CARTESIAN_POINT('',(-2.26476636336749,-2.86787800774336,-21.7068280445332));
#180=CARTESIAN_POINT('',(-2.26476636336749,0.143411410970192,-21.7068280445332));
#181=CARTESIAN_POINT('',(-2.2647663633675,-2.86787800774336,-4.82226221021949));
#182=CARTESIAN_POINT('',(-2.2647663633675,0.143411410970192,-4.82226221021949));
#183=CARTESIAN_POINT('',(-2.2647663633675,-2.86787800774336,12.0623036240942));
#184=CARTESIAN_POINT('',(-2.2647663633675,0.143411410970192,12.0623036240942));
#185=CARTESIAN_POINT('',(14.6197994709462,-2.86787800774336,12.0623036240942));
#186=CARTESIAN_POINT('',(14.6197994709462,0.143411410970192,12.0623036240942));
#187=CARTESIAN_POINT('',(14.6197994709462,5.40912140250295,-4.82226221021948));
#188=CARTESIAN_POINT('',(14.6197994709462,5.40912140250295,-4.82226221021948));
#189=CARTESIAN_POINT('',(14.6197994709462,5.40912140250295,-4.82226221021948));
#190=CARTESIAN_POINT('',(14.6197994709462,5.40912140250295,-4.82226221021948));
#191=CARTESIAN_POINT('',(14.6197994709462,5.40912140250295,-4.82226221021948));
#192=CARTESIAN_POINT('',(14.6197994709462,5.40912140250295,4.44111678921205));
#193=CARTESIAN_POINT('',(23.8831784703777,5.40912140250295,4.44111678921205));
#194=CARTESIAN_POINT('',(23.8831784703777,5.40912140250295,-4.82226221021948));
#195=CARTESIAN_POINT('',(23.8831784703777,5.40912140250295,-14.085641209651));
#196=CARTESIAN_POINT('',(14.6197994709462,5.40912140250295,-14.085641209651));
#197=CARTESIAN_POINT('',(14.6197994709462,0.1434114109702,12.0623036240942));
#198=CARTESIAN_POINT('',(31.5043653052599,0.1434114109702,12.0623036240942));
#199=CARTESIAN_POINT('',(31.5043653052599,0.1434114109702,-4.82226221021948));
#200=CARTESIAN_POINT('',(31.5043653052599,0.1434114109702,-21.7068280445332));
#201=CARTESIAN_POINT('',(14.6197994709462,0.1434114109702,-21.7068280445332));
#202=CARTESIAN_POINT('',(-2.60245768005377,-2.86787800774336,12.3999949407805));
#203=CARTESIAN_POINT('',(13.0572994560847,2.44013084148475,-6.38554294277638));
#204=CARTESIAN_POINT('',(15.8697994560847,2.44013084148475,-4.82304294277638));
#205=CARTESIAN_POINT('',(15.8697994560847,2.44013084148475,-3.57304294277638));
#206=CARTESIAN_POINT('',(14.6197994560847,2.44013084148475,-3.57304294277638));
#207=CARTESIAN_POINT('',(13.3697994560847,2.44013084148475,-3.57304294277638));
#208=CARTESIAN_POINT('',(13.3697994560847,2.44013084148475,-4.82304294277638));
#209=CARTESIAN_POINT('',(15.8697994560847,-5.74550224683583,-4.82304294277638));
#210=CARTESIAN_POINT('',(15.8697994560847,-5.74550224683583,-3.57304294277638));
#211=CARTESIAN_POINT('',(14.6197994560847,-5.74550224683583,-3.57304294277638));
#212=CARTESIAN_POINT('',(13.3697994560847,-5.74550224683583,-3.57304294277638));
#213=CARTESIAN_POINT('',(13.3697994560847,-5.74550224683583,-4.82304294277638));
#214=CARTESIAN_POINT('',(14.6197994709462,-2.86787800774336,12.0623036240942));
#215=CARTESIAN_POINT('',(14.6197994709462,0.143411410970192,12.0623036240942));
#216=CARTESIAN_POINT('',(31.5043653052599,-2.86787800774336,12.0623036240942));
#217=CARTESIAN_POINT('',(31.5043653052599,0.143411410970192,12.0623036240942));
#218=CARTESIAN_POINT('',(31.5043653052599,-2.86787800774336,-4.82226221021948));
#219=CARTESIAN_POINT('',(31.5043653052599,0.143411410970192,-4.82226221021948));
#220=CARTESIAN_POINT('',(31.5043653052599,-2.86787800774336,-21.7068280445332));
#221=CARTESIAN_POINT('',(31.5043653052599,0.143411410970192,-21.7068280445332));
#222=CARTESIAN_POINT('',(14.6197994709462,-2.86787800774336,-21.7068280445332));
#223=CARTESIAN_POINT('',(14.6197994709462,0.143411410970192,-21.7068280445332));
#224=CARTESIAN_POINT('',(-2.26476636336749,-2.86787800774336,-21.7068280445332));
#225=CARTESIAN_POINT('',(-2.26476636336749,0.143411410970192,-21.7068280445332));
#226=CARTESIAN_POINT('',(-2.2647663633675,-2.86787800774336,-4.82226221021949));
#227=CARTESIAN_POINT('',(-2.2647663633675,0.143411410970192,-4.82226221021949));
#228=CARTESIAN_POINT('',(-2.2647663633675,-2.86787800774336,12.0623036240942));
#229=CARTESIAN_POINT('',(-2.2647663633675,0.143411410970192,12.0623036240942));
#230=CARTESIAN_POINT('',(14.6197994709462,-2.86787800774336,12.0623036240942));
#231=CARTESIAN_POINT('',(14.6197994709462,0.143411410970192,12.0623036240942));
#232=CARTESIAN_POINT('',(0.0518094035691385,6.50065113110022,-20.5206252020636));
#233=CARTESIAN_POINT('',(14.6197994709462,5.40912140250295,-4.82226221021948));
#234=CARTESIAN_POINT('',(14.6197994709462,5.40912140250295,-4.82226221021948));
#235=CARTESIAN_POINT('',(14.6197994709462,5.40912140250295,-4.82226221021948));
#236=CARTESIAN_POINT('',(14.6197994709462,5.40912140250295,-4.82226221021948));
#237=CARTESIAN_POINT('',(14.6197994709462,5.40912140250295,-4.82226221021948));
#238=CARTESIAN_POINT('',(14.6197994709462,5.40912140250295,-14.085641209651));
#239=CARTESIAN_POINT('',(5.35642047151467,5.40912140250295,-14.085641209651));
#240=CARTESIAN_POINT('',(5.35642047151467,5.40912140250295,-4.82226221021949));
#241=CARTESIAN_POINT('',(5.35642047151467,5.40912140250295,4.44111678921205));
#242=CARTESIAN_POINT('',(14.6197994709462,5.40912140250295,4.44111678921205));
#243=CARTESIAN_POINT('',(14.6197994709462,0.1434114109702,-21.7068280445332));
#244=CARTESIAN_POINT('',(-2.2647663633675,0.1434114109702,-21.7068280445332));
#245=CARTESIAN_POINT('',(-2.2647663633675,0.1434114109702,-4.82226221021949));
#246=CARTESIAN_POINT('',(-2.2647663633675,0.1434114109702,12.0623036240942));
#247=CARTESIAN_POINT('',(14.6197994709462,0.1434114109702,12.0623036240942));
#248=CARTESIAN_POINT('',(13.3697994560847,2.44013084148475,-4.82304294277638));
#249=CARTESIAN_POINT('',(13.3697994560847,2.44013084148475,-6.07304294277638));
#250=CARTESIAN_POINT('',(14.6197994560847,2.44013084148475,-6.07304294277638));
#251=CARTESIAN_POINT('',(15.8697994560847,2.44013084148475,-6.07304294277638));
#252=CARTESIAN_POINT('',(15.8697994560847,2.44013084148475,-4.82304294277638));
#253=CARTESIAN_POINT('',(13.3697994560847,-5.74550224683583,-4.82304294277638));
#254=CARTESIAN_POINT('',(13.3697994560847,-5.74550224683583,-6.07304294277638));
#255=CARTESIAN_POINT('',(14.6197994560847,-5.74550224683583,-6.07304294277638));
#256=CARTESIAN_POINT('',(15.8697994560847,-5.74550224683583,-6.07304294277638));
#257=CARTESIAN_POINT('',(15.8697994560847,-5.74550224683583,-4.82304294277638));
#258=CARTESIAN_POINT('',(14.6197994709462,-2.86787800774336,12.0623036240942));
#259=CARTESIAN_POINT('',(14.6197994709462,0.143411410970196,12.0623036240942));
#260=CARTESIAN_POINT('',(14.6197994709462,5.40912140250295,-4.82226221021948));
#261=CARTESIAN_POINT('',(15.8697994560847,2.44013084148475,-4.82304294277638));
#262=CARTESIAN_POINT('',(15.8697994560847,-2.86787800774334,-4.82304294277638));
#263=CARTESIAN_POINT('',(0.0518094035691363,-2.86787800774334,-13.3581996988657));
#264=CARTESIAN_POINT('',(0.0518094035691363,0.143411410970207,-13.3581996988657));
#265=CARTESIAN_POINT('',(0.0518094035691381,0.143411410970197,3.71367527842678));
#266=CARTESIAN_POINT('',(0.0518094035691381,-2.86787800774335,3.71367527842678));
#267=CARTESIAN_POINT('',(14.6197994709462,0.143411410970212,-21.7068280445332));
#268=CARTESIAN_POINT('',(13.3697994560847,2.44013084148475,-4.82304294277638));
#269=CARTESIAN_POINT('',(13.3697994560847,-2.86787800774334,-4.82304294277638));
#270=CARTESIAN_POINT('',(14.6197994709462,-2.86787800774336,12.0623036240942));
#271=CARTESIAN_POINT('',(24.3500590516617,-2.86787800774336,12.0623036240942));
#272=CARTESIAN_POINT('',(29.228700553648,-2.86787800774335,3.64346708908528));
#273=CARTESIAN_POINT('',(34.1073420556344,-2.86787800774334,-4.77536944592365));
#274=CARTESIAN_POINT('',(29.2692732140181,-2.86787800774334,-13.2175872464715));
#275=CARTESIAN_POINT('',(24.4312043724019,-2.86787800774333,-21.6598050470193));
#276=CARTESIAN_POINT('',(14.7010574723569,-2.86787800774333,-21.7066325138607));
#277=CARTESIAN_POINT('',(4.97091057231201,-2.86787800774333,-21.753459980702));
#278=CARTESIAN_POINT('',(0.0518094035691341,-2.86787800774334,-13.3581996988657));
#279=CARTESIAN_POINT('',(14.6197994709462,-2.86787800774336,12.0623036240942));
#280=CARTESIAN_POINT('',(14.6197994709462,0.143411410970196,12.0623036240942));
#281=CARTESIAN_POINT('',(14.6197994709462,0.143411410970196,12.0623036240942));
#282=CARTESIAN_POINT('',(4.94358715362003,0.143411410970193,12.0623036240942));
#283=CARTESIAN_POINT('',(0.0518094035691377,0.143411410970197,3.71367527842678));
#284=CARTESIAN_POINT('',(14.6197994709462,5.40912140250295,-4.82226221021948));
#285=CARTESIAN_POINT('',(14.6197994709462,5.40912140250295,4.44111678921205));
#286=CARTESIAN_POINT('',(14.6197994709462,0.1434114109702,12.0623036240942));
#287=CARTESIAN_POINT('',(15.8697994560847,2.44013084148475,-4.82304294277638));
#288=CARTESIAN_POINT('',(15.8697994560847,2.44013084148475,-3.57304294277638));
#289=CARTESIAN_POINT('',(14.6197994560847,2.44013084148475,-3.57304294277638));
#290=CARTESIAN_POINT('',(13.3697994560847,2.44013084148475,-3.57304294277638));
#291=CARTESIAN_POINT('',(13.3697994560847,2.44013084148475,-4.82304294277638));
#292=CARTESIAN_POINT('',(15.8697994560847,2.44013084148475,-4.82304294277638));
#293=CARTESIAN_POINT('',(15.8697994560847,-2.86787800774334,-4.82304294277638));
#294=CARTESIAN_POINT('',(15.8697994560847,-2.86787800774334,-4.82304294277638));
#295=CARTESIAN_POINT('',(15.8697994560847,-2.86787800774334,-3.57304294277638));
#296=CARTESIAN_POINT('',(14.6197994560847,-2.86787800774334,-3.57304294277638));
#297=CARTESIAN_POINT('',(13.3697994560847,-2.86787800774334,-3.57304294277638));
#298=CARTESIAN_POINT('',(13.3697994560847,-2.86787800774334,-4.82304294277638));
#299=CARTESIAN_POINT('',(0.0518094035691363,-2.86787800774334,-13.3581996988657));
#300=CARTESIAN_POINT('',(0.0518094035691363,0.143411410970207,-13.3581996988657));
#301=CARTESIAN_POINT('',(0.0518094035691381,0.143411410970197,3.71367527842678));
#302=CARTESIAN_POINT('',(0.0518094035691381,-2.86787800774335,3.71367527842678));
#303=CARTESIAN_POINT('',(0.0518094035691381,0.143411410970197,3.71367527842678));
#304=CARTESIAN_POINT('',(0.0518094035691387,0.621774978484231,2.34417400703881));
#305=CARTESIAN_POINT('',(0.0518094035717813,0.98416975118439,0.936884411004336));
#306=CARTESIAN_POINT('',(0.0518094035717813,1.46936631015345,-1.92354318629628));
#307=CARTESIAN_POINT('',(0.0518094035691387,1.59130944585892,-3.37161909936905));
#308=CARTESIAN_POINT('',(0.0518094035691387,1.59130944585892,-4.82226221021949));
#309=CARTESIAN_POINT('',(0.0518094035691387,1.59130944585892,-6.27290532106992));
#310=CARTESIAN_POINT('',(0.0518094035717812,1.46936631015345,-7.72098123414269));
#311=CARTESIAN_POINT('',(0.0518094035717812,0.984169751184391,-10.5814088314433));
#312=CARTESIAN_POINT('',(0.0518094035691386,0.621774978484229,-11.9886984274778));
#313=CARTESIAN_POINT('',(0.0518094035691363,0.143411410970207,-13.3581996988657));
#314=CARTESIAN_POINT('',(0.0518094035691363,-2.86787800774334,-13.3581996988657));
#315=CARTESIAN_POINT('',(0.0518094035691381,-2.86787800774335,3.71367527842678));
#316=CARTESIAN_POINT('',(0.0518094035691377,-2.86787800774335,3.71367527842678));
#317=CARTESIAN_POINT('',(4.94358715362003,-2.86787800774335,12.0623036240942));
#318=CARTESIAN_POINT('',(14.6197994709462,-2.86787800774336,12.0623036240942));
#319=CARTESIAN_POINT('',(0.0518094035691377,0.143411410970207,-13.3581996988658));
#320=CARTESIAN_POINT('',(4.94358715362003,0.143411410970212,-21.7068280445332));
#321=CARTESIAN_POINT('',(14.6197994709462,0.143411410970212,-21.7068280445332));
#322=CARTESIAN_POINT('',(14.6197994709462,5.40912140250294,-4.82226221021948));
#323=CARTESIAN_POINT('',(14.6197994709462,5.40912140250294,-14.085641209651));
#324=CARTESIAN_POINT('',(14.6197994709462,0.143411410970193,-21.7068280445332));
#325=CARTESIAN_POINT('',(14.6197994709462,0.143411410970212,-21.7068280445332));
#326=CARTESIAN_POINT('',(31.5043653052599,0.143411410970212,-21.7068280445332));
#327=CARTESIAN_POINT('',(31.5043653052599,0.143411410970202,-4.82226221021949));
#328=CARTESIAN_POINT('',(31.5043653052599,0.143411410970193,12.0623036240942));
#329=CARTESIAN_POINT('',(14.6197994709462,0.143411410970193,12.0623036240942));
#330=CARTESIAN_POINT('',(13.3697994560847,2.44013084148475,-4.82304294277638));
#331=CARTESIAN_POINT('',(13.3697994560847,-2.86787800774334,-4.82304294277638));
#332=CARTESIAN_POINT('',(13.3697994560847,2.44013084148475,-4.82304294277638));
#333=CARTESIAN_POINT('',(13.3697994560847,2.44013084148475,-6.07304294277638));
#334=CARTESIAN_POINT('',(14.6197994560847,2.44013084148475,-6.07304294277638));
#335=CARTESIAN_POINT('',(15.8697994560847,2.44013084148475,-6.07304294277638));
#336=CARTESIAN_POINT('',(15.8697994560847,2.44013084148475,-4.82304294277638));
#337=CARTESIAN_POINT('',(13.3697994560847,-2.86787800774334,-4.82304294277638));
#338=CARTESIAN_POINT('',(13.3697994560847,-2.86787800774334,-6.07304294277638));
#339=CARTESIAN_POINT('',(14.6197994560847,-2.86787800774334,-6.07304294277638));
#340=CARTESIAN_POINT('',(15.8697994560847,-2.86787800774334,-6.07304294277638));
#341=CARTESIAN_POINT('',(15.8697994560847,-2.86787800774334,-4.82304294277638));
#342=CARTESIAN_POINT('',(0.,0.,0.));
ENDSEC;
END-ISO-10303-21;
