ISO-10303-21;
HEADER;
/* Generated by software containing ST-Developer
 * from STEP Tools, Inc. (www.steptools.com) 
 */
/* OPTION: using custom schema-name function */

FILE_DESCRIPTION(
/* description */ (''),
/* implementation_level */ '2;1');

FILE_NAME(
/* name */ 'Lentille M3',
/* time_stamp */ '2023-01-28T12:35:20+01:00',
/* author */ (''),
/* organization */ (''),
/* preprocessor_version */ 'ST-DEVELOPER v16.5',
/* originating_system */ '',
/* authorisation */ '');

FILE_SCHEMA (('AUTOMOTIVE_DESIGN'));
ENDSEC;

DATA;
#10=SHAPE_REPRESENTATION_RELATIONSHIP('','',#164,#22);
#11=COLOUR_RGB('',0.,0.,1.);
#12=FILL_AREA_STYLE_COLOUR('',#11);
#13=FILL_AREA_STYLE('',(#12));
#14=SURFACE_STYLE_FILL_AREA(#13);
#15=SURFACE_SIDE_STYLE('',(#14));
#16=SURFACE_STYLE_USAGE(.BOTH.,#15);
#17=MECHANICAL_DESIGN_GEOMETRIC_PRESENTATION_REPRESENTATION('',(#19),#163);
#18=PRESENTATION_STYLE_ASSIGNMENT((#16));
#19=STYLED_ITEM('',(#18),#21);
#20=PRESENTATION_LAYER_ASSIGNMENT('Calque 03','',(#21));
#21=MANIFOLD_SOLID_BREP('brep_1',#23);
#22=ADVANCED_BREP_SHAPE_REPRESENTATION('brep_rep_0',(#21,#169),#163);
#23=CLOSED_SHELL('',(#25,#26,#27,#28,#29,#30,#31,#32,#33));
#24=FACE_BOUND('',#46,.T.);
#25=ADVANCED_FACE('',(#34),#140,.T.);
#26=ADVANCED_FACE('',(#35),#141,.T.);
#27=ADVANCED_FACE('',(#36,#24),#137,.T.);
#28=ADVANCED_FACE('',(#37),#142,.T.);
#29=ADVANCED_FACE('',(#38),#138,.T.);
#30=ADVANCED_FACE('',(#39),#143,.T.);
#31=ADVANCED_FACE('',(#40),#139,.T.);
#32=ADVANCED_FACE('',(#41),#144,.T.);
#33=ADVANCED_FACE('',(#42),#145,.T.);
#34=FACE_OUTER_BOUND('',#43,.T.);
#35=FACE_OUTER_BOUND('',#44,.T.);
#36=FACE_OUTER_BOUND('',#45,.T.);
#37=FACE_OUTER_BOUND('',#47,.T.);
#38=FACE_OUTER_BOUND('',#48,.T.);
#39=FACE_OUTER_BOUND('',#49,.T.);
#40=FACE_OUTER_BOUND('',#50,.T.);
#41=FACE_OUTER_BOUND('',#51,.T.);
#42=FACE_OUTER_BOUND('',#52,.T.);
#43=EDGE_LOOP('',(#53,#54,#55));
#44=EDGE_LOOP('',(#56,#57,#58,#59));
#45=EDGE_LOOP('',(#60,#61,#62));
#46=EDGE_LOOP('',(#63,#64));
#47=EDGE_LOOP('',(#65,#66,#67,#68,#69));
#48=EDGE_LOOP('',(#70,#71,#72,#73));
#49=EDGE_LOOP('',(#74,#75,#76,#77));
#50=EDGE_LOOP('',(#78,#79));
#51=EDGE_LOOP('',(#80,#81,#82,#83,#84));
#52=EDGE_LOOP('',(#85,#86,#87,#88));
#53=ORIENTED_EDGE('',*,*,#92,.F.);
#54=ORIENTED_EDGE('',*,*,#91,.T.);
#55=ORIENTED_EDGE('',*,*,#102,.F.);
#56=ORIENTED_EDGE('',*,*,#98,.T.);
#57=ORIENTED_EDGE('',*,*,#90,.F.);
#58=ORIENTED_EDGE('',*,*,#97,.F.);
#59=ORIENTED_EDGE('',*,*,#94,.F.);
#60=ORIENTED_EDGE('',*,*,#95,.T.);
#61=ORIENTED_EDGE('',*,*,#97,.T.);
#62=ORIENTED_EDGE('',*,*,#89,.T.);
#63=ORIENTED_EDGE('',*,*,#100,.T.);
#64=ORIENTED_EDGE('',*,*,#106,.T.);
#65=ORIENTED_EDGE('',*,*,#89,.F.);
#66=ORIENTED_EDGE('',*,*,#90,.T.);
#67=ORIENTED_EDGE('',*,*,#92,.T.);
#68=ORIENTED_EDGE('',*,*,#103,.T.);
#69=ORIENTED_EDGE('',*,*,#96,.F.);
#70=ORIENTED_EDGE('',*,*,#93,.T.);
#71=ORIENTED_EDGE('',*,*,#94,.T.);
#72=ORIENTED_EDGE('',*,*,#95,.F.);
#73=ORIENTED_EDGE('',*,*,#96,.T.);
#74=ORIENTED_EDGE('',*,*,#100,.F.);
#75=ORIENTED_EDGE('',*,*,#101,.T.);
#76=ORIENTED_EDGE('',*,*,#99,.T.);
#77=ORIENTED_EDGE('',*,*,#104,.F.);
#78=ORIENTED_EDGE('',*,*,#105,.F.);
#79=ORIENTED_EDGE('',*,*,#99,.F.);
#80=ORIENTED_EDGE('',*,*,#102,.T.);
#81=ORIENTED_EDGE('',*,*,#91,.F.);
#82=ORIENTED_EDGE('',*,*,#98,.F.);
#83=ORIENTED_EDGE('',*,*,#93,.F.);
#84=ORIENTED_EDGE('',*,*,#103,.F.);
#85=ORIENTED_EDGE('',*,*,#104,.T.);
#86=ORIENTED_EDGE('',*,*,#105,.T.);
#87=ORIENTED_EDGE('',*,*,#101,.F.);
#88=ORIENTED_EDGE('',*,*,#106,.F.);
#89=EDGE_CURVE('',#125,#131,#113,.T.);
#90=EDGE_CURVE('',#125,#127,#107,.T.);
#91=EDGE_CURVE('',#127,#126,#108,.T.);
#92=EDGE_CURVE('',#127,#134,#114,.T.);
#93=EDGE_CURVE('',#128,#129,#109,.T.);
#94=EDGE_CURVE('',#129,#130,#110,.T.);
#95=EDGE_CURVE('',#131,#130,#111,.T.);
#96=EDGE_CURVE('',#131,#128,#112,.T.);
#97=EDGE_CURVE('',#130,#125,#115,.T.);
#98=EDGE_CURVE('',#129,#127,#116,.T.);
#99=EDGE_CURVE('',#132,#136,#117,.T.);
#100=EDGE_CURVE('',#133,#135,#118,.T.);
#101=EDGE_CURVE('',#133,#132,#119,.T.);
#102=EDGE_CURVE('',#134,#126,#120,.T.);
#103=EDGE_CURVE('',#134,#128,#121,.T.);
#104=EDGE_CURVE('',#135,#136,#122,.T.);
#105=EDGE_CURVE('',#136,#132,#123,.T.);
#106=EDGE_CURVE('',#135,#133,#124,.T.);
#107=B_SPLINE_CURVE_WITH_KNOTS('',1,(#288,#289),.UNSPECIFIED.,.F.,.F.,(2,
2),(0.,2.99738157066977),.UNSPECIFIED.);
#108=B_SPLINE_CURVE_WITH_KNOTS('',2,(#290,#291,#292),.UNSPECIFIED.,.F.,
 .F.,(3,3),(2.99738157066977,18.0560812519124),.UNSPECIFIED.);
#109=B_SPLINE_CURVE_WITH_KNOTS('',3,(#302,#303,#304,#305,#306,#307,#308,
#309,#310,#311,#312),.UNSPECIFIED.,.F.,.F.,(4,2,3,2,4),(0.,4.55117418526046,
9.09961382645989,13.6480534676598,18.1992276529193),.UNSPECIFIED.);
#110=B_SPLINE_CURVE_WITH_KNOTS('',1,(#313,#314),.UNSPECIFIED.,.F.,.F.,(2,
2),(84.7461035065276,87.7531990852061),.UNSPECIFIED.);
#111=B_SPLINE_CURVE_WITH_KNOTS('',1,(#315,#316),.UNSPECIFIED.,.F.,.F.,(2,
2),(-19.9517398209554,-6.17706180202283),.UNSPECIFIED.);
#112=B_SPLINE_CURVE_WITH_KNOTS('',1,(#317,#318),.UNSPECIFIED.,.F.,.F.,(2,
2),(-87.7531990852061,-84.7461035065276),.UNSPECIFIED.);
#113=(
BOUNDED_CURVE()
B_SPLINE_CURVE(2,(#279,#280,#281,#282,#283,#284,#285,#286,#287),
 .UNSPECIFIED.,.F.,.F.)
B_SPLINE_CURVE_WITH_KNOTS((3,2,2,2,3),(0.,13.6797170263268,27.3594340526535,
41.0391510789803,54.2925634652469),.UNSPECIFIED.)
CURVE()
GEOMETRIC_REPRESENTATION_ITEM()
RATIONAL_B_SPLINE_CURVE((1.,0.866050117050069,1.,0.866050117050069,1.,0.866050117050069,
1.,0.873765315483974,1.))
REPRESENTATION_ITEM('')
);
#114=(
BOUNDED_CURVE()
B_SPLINE_CURVE(2,(#293,#294,#295,#296,#297,#298,#299,#300,#301),
 .UNSPECIFIED.,.F.,.F.)
B_SPLINE_CURVE_WITH_KNOTS((3,2,2,2,3),(0.,13.6797170263268,27.3594340526535,
41.0391510789803,41.0432082846243),.UNSPECIFIED.)
CURVE()
GEOMETRIC_REPRESENTATION_ITEM()
RATIONAL_B_SPLINE_CURVE((1.,0.866050117050069,1.,0.866050117050069,1.,0.866050117050069,
1.,0.99999998900564,1.))
REPRESENTATION_ITEM('')
);
#115=(
BOUNDED_CURVE()
B_SPLINE_CURVE(2,(#319,#320,#321),.UNSPECIFIED.,.F.,.F.)
B_SPLINE_CURVE_WITH_KNOTS((3,3),(68.8365026640547,82.0860512258552),
 .UNSPECIFIED.)
CURVE()
GEOMETRIC_REPRESENTATION_ITEM()
RATIONAL_B_SPLINE_CURVE((1.,0.873837424417219,1.))
REPRESENTATION_ITEM('')
);
#116=(
BOUNDED_CURVE()
B_SPLINE_CURVE(2,(#322,#323,#324),.UNSPECIFIED.,.F.,.F.)
B_SPLINE_CURVE_WITH_KNOTS((3,3),(68.8365026640548,82.0860512258552),
 .UNSPECIFIED.)
CURVE()
GEOMETRIC_REPRESENTATION_ITEM()
RATIONAL_B_SPLINE_CURVE((1.,0.873837424417221,1.))
REPRESENTATION_ITEM('')
);
#117=(
BOUNDED_CURVE()
B_SPLINE_CURVE(2,(#325,#326,#327,#328,#329),.UNSPECIFIED.,.F.,.F.)
B_SPLINE_CURVE_WITH_KNOTS((3,2,3),(-7.85398163397448,-5.89048622548086,
-3.92699081698724),.UNSPECIFIED.)
CURVE()
GEOMETRIC_REPRESENTATION_ITEM()
RATIONAL_B_SPLINE_CURVE((1.,0.707106781186548,1.,0.707106781186548,1.))
REPRESENTATION_ITEM('')
);
#118=(
BOUNDED_CURVE()
B_SPLINE_CURVE(2,(#330,#331,#332,#333,#334),.UNSPECIFIED.,.F.,.F.)
B_SPLINE_CURVE_WITH_KNOTS((3,2,3),(-7.85398163397448,-5.89048622548086,
-3.92699081698724),.UNSPECIFIED.)
CURVE()
GEOMETRIC_REPRESENTATION_ITEM()
RATIONAL_B_SPLINE_CURVE((1.,0.707106781186548,1.,0.707106781186547,1.))
REPRESENTATION_ITEM('')
);
#119=(
BOUNDED_CURVE()
B_SPLINE_CURVE(1,(#335,#336),.UNSPECIFIED.,.F.,.F.)
B_SPLINE_CURVE_WITH_KNOTS((2,2),(7.16141228386437,13.6234228326438),
 .UNSPECIFIED.)
CURVE()
GEOMETRIC_REPRESENTATION_ITEM()
RATIONAL_B_SPLINE_CURVE((1.,1.))
REPRESENTATION_ITEM('')
);
#120=(
BOUNDED_CURVE()
B_SPLINE_CURVE(2,(#337,#338,#339),.UNSPECIFIED.,.F.,.F.)
B_SPLINE_CURVE_WITH_KNOTS((3,3),(2.99738157066977,18.0560812519124),
 .UNSPECIFIED.)
CURVE()
GEOMETRIC_REPRESENTATION_ITEM()
RATIONAL_B_SPLINE_CURVE((1.,1.,1.))
REPRESENTATION_ITEM('')
);
#121=(
BOUNDED_CURVE()
B_SPLINE_CURVE(2,(#340,#341,#342),.UNSPECIFIED.,.F.,.F.)
B_SPLINE_CURVE_WITH_KNOTS((3,3),(41.0432082846243,54.292563465247),
 .UNSPECIFIED.)
CURVE()
GEOMETRIC_REPRESENTATION_ITEM()
RATIONAL_B_SPLINE_CURVE((1.,0.873837424417219,1.))
REPRESENTATION_ITEM('')
);
#122=(
BOUNDED_CURVE()
B_SPLINE_CURVE(1,(#343,#344),.UNSPECIFIED.,.F.,.F.)
B_SPLINE_CURVE_WITH_KNOTS((2,2),(7.16141228386437,13.6234228326438),
 .UNSPECIFIED.)
CURVE()
GEOMETRIC_REPRESENTATION_ITEM()
RATIONAL_B_SPLINE_CURVE((1.,1.))
REPRESENTATION_ITEM('')
);
#123=(
BOUNDED_CURVE()
B_SPLINE_CURVE(2,(#345,#346,#347,#348,#349),.UNSPECIFIED.,.F.,.F.)
B_SPLINE_CURVE_WITH_KNOTS((3,2,3),(-3.92699081698724,-1.96349540849362,
0.),.UNSPECIFIED.)
CURVE()
GEOMETRIC_REPRESENTATION_ITEM()
RATIONAL_B_SPLINE_CURVE((1.,0.707106781186548,1.,0.707106781186548,1.))
REPRESENTATION_ITEM('')
);
#124=(
BOUNDED_CURVE()
B_SPLINE_CURVE(2,(#350,#351,#352,#353,#354),.UNSPECIFIED.,.F.,.F.)
B_SPLINE_CURVE_WITH_KNOTS((3,2,3),(-3.92699081698724,-1.96349540849362,
0.),.UNSPECIFIED.)
CURVE()
GEOMETRIC_REPRESENTATION_ITEM()
RATIONAL_B_SPLINE_CURVE((1.,0.707106781186548,1.,0.707106781186548,1.))
REPRESENTATION_ITEM('')
);
#125=VERTEX_POINT('',#267);
#126=VERTEX_POINT('',#268);
#127=VERTEX_POINT('',#269);
#128=VERTEX_POINT('',#270);
#129=VERTEX_POINT('',#271);
#130=VERTEX_POINT('',#272);
#131=VERTEX_POINT('',#273);
#132=VERTEX_POINT('',#274);
#133=VERTEX_POINT('',#275);
#134=VERTEX_POINT('',#276);
#135=VERTEX_POINT('',#277);
#136=VERTEX_POINT('',#278);
#137=PLANE('',#166);
#138=PLANE('',#167);
#139=PLANE('',#168);
#140=(
BOUNDED_SURFACE()
B_SPLINE_SURFACE(2,2,((#178,#179,#180,#181,#182),(#183,#184,#185,#186,#187),
(#188,#189,#190,#191,#192)),.UNSPECIFIED.,.F.,.F.,.F.)
B_SPLINE_SURFACE_WITH_KNOTS((3,3),(3,2,3),(2.99738157066977,18.0560812519124),
(0.,20.5215128064638,41.0430256129276),.UNSPECIFIED.)
GEOMETRIC_REPRESENTATION_ITEM()
RATIONAL_B_SPLINE_SURFACE(((1.,0.707106781186548,1.,0.707106781186548,1.),
(1.,0.707106781186548,1.,0.707106781186548,1.),(1.,0.707106781186548,1.,
0.707106781186548,1.)))
REPRESENTATION_ITEM('')
SURFACE()
);
#141=(
BOUNDED_SURFACE()
B_SPLINE_SURFACE(1,2,((#193,#194,#195,#196,#197,#198,#199,#200,#201),(#202,
#203,#204,#205,#206,#207,#208,#209,#210)),.UNSPECIFIED.,.F.,.F.,.F.)
B_SPLINE_SURFACE_WITH_KNOTS((2,2),(3,2,2,2,3),(0.,2.99738157066977),(0.,
20.5215128064638,41.0430256129276,61.5645384193914,82.0860512258552),
 .UNSPECIFIED.)
GEOMETRIC_REPRESENTATION_ITEM()
RATIONAL_B_SPLINE_SURFACE(((1.,0.707106781186548,1.,0.707106781186548,1.,
0.707106781186548,1.,0.707106781186548,1.),(1.,0.707106781186548,1.,0.707106781186548,
1.,0.707106781186548,1.,0.707106781186548,1.)))
REPRESENTATION_ITEM('')
SURFACE()
);
#142=(
BOUNDED_SURFACE()
B_SPLINE_SURFACE(1,2,((#212,#213,#214,#215,#216,#217,#218,#219,#220),(#221,
#222,#223,#224,#225,#226,#227,#228,#229)),.UNSPECIFIED.,.F.,.F.,.F.)
B_SPLINE_SURFACE_WITH_KNOTS((2,2),(3,2,2,2,3),(0.,2.99738157066977),(0.,
20.5215128064638,41.0430256129276,61.5645384193914,82.0860512258552),
 .UNSPECIFIED.)
GEOMETRIC_REPRESENTATION_ITEM()
RATIONAL_B_SPLINE_SURFACE(((1.,0.707106781186548,1.,0.707106781186548,1.,
0.707106781186548,1.,0.707106781186548,1.),(1.,0.707106781186548,1.,0.707106781186548,
1.,0.707106781186548,1.,0.707106781186548,1.)))
REPRESENTATION_ITEM('')
SURFACE()
);
#143=(
BOUNDED_SURFACE()
B_SPLINE_SURFACE(1,2,((#231,#232,#233,#234,#235),(#236,#237,#238,#239,#240)),
 .UNSPECIFIED.,.F.,.F.,.F.)
B_SPLINE_SURFACE_WITH_KNOTS((2,2),(3,2,3),(0.,13.6234228326438),(-7.85398163397448,
-5.89048622548086,-3.92699081698724),.UNSPECIFIED.)
GEOMETRIC_REPRESENTATION_ITEM()
RATIONAL_B_SPLINE_SURFACE(((1.,0.707106781186548,1.,0.707106781186548,1.),
(1.,0.707106781186548,1.,0.707106781186548,1.)))
REPRESENTATION_ITEM('')
SURFACE()
);
#144=(
BOUNDED_SURFACE()
B_SPLINE_SURFACE(2,2,((#242,#243,#244,#245,#246),(#247,#248,#249,#250,#251),
(#252,#253,#254,#255,#256)),.UNSPECIFIED.,.F.,.F.,.F.)
B_SPLINE_SURFACE_WITH_KNOTS((3,3),(3,2,3),(2.99738157066977,18.0560812519124),
(41.0430256129276,61.5645384193914,82.0860512258552),.UNSPECIFIED.)
GEOMETRIC_REPRESENTATION_ITEM()
RATIONAL_B_SPLINE_SURFACE(((1.,0.707106781186548,1.,0.707106781186548,1.),
(1.,0.707106781186548,1.,0.707106781186548,1.),(1.,0.707106781186548,1.,
0.707106781186548,1.)))
REPRESENTATION_ITEM('')
SURFACE()
);
#145=(
BOUNDED_SURFACE()
B_SPLINE_SURFACE(1,2,((#257,#258,#259,#260,#261),(#262,#263,#264,#265,#266)),
 .UNSPECIFIED.,.F.,.F.,.F.)
B_SPLINE_SURFACE_WITH_KNOTS((2,2),(3,2,3),(0.,13.6234228326438),(-3.92699081698724,
-1.96349540849362,0.),.UNSPECIFIED.)
GEOMETRIC_REPRESENTATION_ITEM()
RATIONAL_B_SPLINE_SURFACE(((1.,0.707106781186548,1.,0.707106781186548,1.),
(1.,0.707106781186548,1.,0.707106781186548,1.)))
REPRESENTATION_ITEM('')
SURFACE()
);
#146=SHAPE_DEFINITION_REPRESENTATION(#147,#164);
#147=PRODUCT_DEFINITION_SHAPE('Document','',#149);
#148=PRODUCT_DEFINITION_CONTEXT('3D Mechanical Parts',#153,'design');
#149=PRODUCT_DEFINITION('A','First version',#150,#148);
#150=PRODUCT_DEFINITION_FORMATION_WITH_SPECIFIED_SOURCE('A',
'First version',#155,.MADE.);
#151=PRODUCT_RELATED_PRODUCT_CATEGORY('tool','tool',(#155));
#152=APPLICATION_PROTOCOL_DEFINITION('Draft International Standard',
'automotive_design',1999,#153);
#153=APPLICATION_CONTEXT(
'data for automotive mechanical design processes');
#154=PRODUCT_CONTEXT('3D Mechanical Parts',#153,'mechanical');
#155=PRODUCT('Document','Document','Rhino converted to STEP',(#154));
#156=(
LENGTH_UNIT()
NAMED_UNIT(*)
SI_UNIT(.MILLI.,.METRE.)
);
#157=(
NAMED_UNIT(*)
PLANE_ANGLE_UNIT()
SI_UNIT($,.RADIAN.)
);
#158=DIMENSIONAL_EXPONENTS(0.,0.,0.,0.,0.,0.,0.);
#159=PLANE_ANGLE_MEASURE_WITH_UNIT(PLANE_ANGLE_MEASURE(0.01745329252),#157);
#160=(
CONVERSION_BASED_UNIT('DEGREES',#159)
NAMED_UNIT(#158)
PLANE_ANGLE_UNIT()
);
#161=(
NAMED_UNIT(*)
SI_UNIT($,.STERADIAN.)
SOLID_ANGLE_UNIT()
);
#162=UNCERTAINTY_MEASURE_WITH_UNIT(LENGTH_MEASURE(0.001),#156,
'DISTANCE_ACCURACY_VALUE',
'Maximum model space distance between geometric entities at asserted c
onnectivities');
#163=(
GEOMETRIC_REPRESENTATION_CONTEXT(3)
GLOBAL_UNCERTAINTY_ASSIGNED_CONTEXT((#162))
GLOBAL_UNIT_ASSIGNED_CONTEXT((#161,#160,#156))
REPRESENTATION_CONTEXT('ID1','3D')
);
#164=SHAPE_REPRESENTATION('Document',(#165,#169),#163);
#165=AXIS2_PLACEMENT_3D('',#177,#170,#171);
#166=AXIS2_PLACEMENT_3D('',#211,#172,$);
#167=AXIS2_PLACEMENT_3D('',#230,#173,$);
#168=AXIS2_PLACEMENT_3D('',#241,#174,$);
#169=AXIS2_PLACEMENT_3D('',#355,#175,#176);
#170=DIRECTION('',(0.,0.,1.));
#171=DIRECTION('',(1.,0.,0.));
#172=DIRECTION('',(0.,-1.,0.));
#173=DIRECTION('',(-1.,0.,0.));
#174=DIRECTION('',(0.,-1.,0.));
#175=DIRECTION('',(0.,0.,1.));
#176=DIRECTION('',(1.,0.,0.));
#177=CARTESIAN_POINT('',(0.,0.,0.));
#178=CARTESIAN_POINT('',(14.6197994560845,10.6614122838651,-21.7083895096475));
#179=CARTESIAN_POINT('',(31.5051460229558,10.6614122838649,-21.7083895096476));
#180=CARTESIAN_POINT('',(31.5051460229557,10.6614122838644,-4.82304294277666));
#181=CARTESIAN_POINT('',(31.5051460229561,10.6614122838645,12.0623036240946));
#182=CARTESIAN_POINT('',(14.6197994560849,10.6614122838645,12.0623036240946));
#183=CARTESIAN_POINT('',(14.6197994560845,16.7661028701355,-14.1404018527771));
#184=CARTESIAN_POINT('',(23.9371583660852,16.7661028701357,-14.140401852777));
#185=CARTESIAN_POINT('',(23.9371583660853,16.7661028701351,-4.82304294277661));
#186=CARTESIAN_POINT('',(23.9371583660855,16.7661028701353,4.49431596722406));
#187=CARTESIAN_POINT('',(14.6197994560847,16.7661028701353,4.49431596722411));
#188=CARTESIAN_POINT('',(14.6197994560847,16.7661028701354,-4.82304294277651));
#189=CARTESIAN_POINT('',(14.6197994560847,16.7661028701354,-4.82304294277638));
#190=CARTESIAN_POINT('',(14.6197994560847,16.7661028701354,-4.82304294277651));
#191=CARTESIAN_POINT('',(14.6197994560847,16.7661028701354,-4.82304294277638));
#192=CARTESIAN_POINT('',(14.6197994560847,16.7661028701354,-4.82304294277651));
#193=CARTESIAN_POINT('',(14.6197994560845,7.16141228386529,-21.7083895096475));
#194=CARTESIAN_POINT('',(31.5051460229558,7.16141228386499,-21.7083895096476));
#195=CARTESIAN_POINT('',(31.5051460229557,7.16141228386455,-4.82304294277664));
#196=CARTESIAN_POINT('',(31.5051460229561,7.1614122838646,12.0623036240946));
#197=CARTESIAN_POINT('',(14.6197994560849,7.16141228386463,12.0623036240946));
#198=CARTESIAN_POINT('',(-2.26554711078596,7.16141228386462,12.062303624095));
#199=CARTESIAN_POINT('',(-2.26554711078634,7.16141228386405,-4.8230429427763));
#200=CARTESIAN_POINT('',(-2.26554711078628,7.16141228386464,-21.7083895096473));
#201=CARTESIAN_POINT('',(14.6197994560845,7.16141228386529,-21.7083895096475));
#202=CARTESIAN_POINT('',(14.6197994560845,10.6614122838651,-21.7083895096475));
#203=CARTESIAN_POINT('',(31.5051460229558,10.6614122838649,-21.7083895096476));
#204=CARTESIAN_POINT('',(31.5051460229557,10.6614122838644,-4.82304294277666));
#205=CARTESIAN_POINT('',(31.5051460229561,10.6614122838645,12.0623036240946));
#206=CARTESIAN_POINT('',(14.6197994560849,10.6614122838645,12.0623036240946));
#207=CARTESIAN_POINT('',(-2.26554711078612,10.6614122838642,12.0623036240949));
#208=CARTESIAN_POINT('',(-2.26554711078634,10.6614122838642,-4.8230429427763));
#209=CARTESIAN_POINT('',(-2.26554711078644,10.6614122838644,-21.7083895096473));
#210=CARTESIAN_POINT('',(14.6197994560845,10.6614122838651,-21.7083895096475));
#211=CARTESIAN_POINT('',(31.8428529542933,7.16141228386435,12.400010555432));
#212=CARTESIAN_POINT('',(14.6197994560845,7.16141228386529,-21.7083895096475));
#213=CARTESIAN_POINT('',(31.5051460229558,7.16141228386499,-21.7083895096476));
#214=CARTESIAN_POINT('',(31.5051460229557,7.16141228386455,-4.82304294277664));
#215=CARTESIAN_POINT('',(31.5051460229561,7.1614122838646,12.0623036240946));
#216=CARTESIAN_POINT('',(14.6197994560849,7.16141228386463,12.0623036240946));
#217=CARTESIAN_POINT('',(-2.26554711078596,7.16141228386462,12.062303624095));
#218=CARTESIAN_POINT('',(-2.26554711078634,7.16141228386405,-4.8230429427763));
#219=CARTESIAN_POINT('',(-2.26554711078628,7.16141228386464,-21.7083895096473));
#220=CARTESIAN_POINT('',(14.6197994560845,7.16141228386529,-21.7083895096475));
#221=CARTESIAN_POINT('',(14.6197994560845,10.6614122838651,-21.7083895096475));
#222=CARTESIAN_POINT('',(31.5051460229558,10.6614122838649,-21.7083895096476));
#223=CARTESIAN_POINT('',(31.5051460229557,10.6614122838644,-4.82304294277666));
#224=CARTESIAN_POINT('',(31.5051460229561,10.6614122838645,12.0623036240946));
#225=CARTESIAN_POINT('',(14.6197994560849,10.6614122838645,12.0623036240946));
#226=CARTESIAN_POINT('',(-2.26554711078612,10.6614122838642,12.0623036240949));
#227=CARTESIAN_POINT('',(-2.26554711078634,10.6614122838642,-4.8230429427763));
#228=CARTESIAN_POINT('',(-2.26554711078644,10.6614122838644,-21.7083895096473));
#229=CARTESIAN_POINT('',(14.6197994560845,10.6614122838651,-21.7083895096475));
#230=CARTESIAN_POINT('',(0.271453399554679,109.298570469302,7.10449990401067));
#231=CARTESIAN_POINT('',(15.8697994560847,0.928869082216878,-4.8230429427763));
#232=CARTESIAN_POINT('',(15.8697994560847,0.928869082216893,-6.0730429427763));
#233=CARTESIAN_POINT('',(14.6197994560847,0.928869082216893,-6.0730429427763));
#234=CARTESIAN_POINT('',(13.3697994560847,0.928869082216893,-6.0730429427763));
#235=CARTESIAN_POINT('',(13.3697994560847,0.928869082216878,-4.8230429427763));
#236=CARTESIAN_POINT('',(15.8697994560847,12.785269467107,-4.82304294277646));
#237=CARTESIAN_POINT('',(15.8697994560847,12.785269467107,-6.07304294277646));
#238=CARTESIAN_POINT('',(14.6197994560847,12.785269467107,-6.07304294277646));
#239=CARTESIAN_POINT('',(13.3697994560847,12.785269467107,-6.07304294277646));
#240=CARTESIAN_POINT('',(13.3697994560847,12.785269467107,-4.82304294277646));
#241=CARTESIAN_POINT('',(16.1822994560847,12.785269467107,-6.38554294277646));
#242=CARTESIAN_POINT('',(14.6197994560849,10.6614122838645,12.0623036240946));
#243=CARTESIAN_POINT('',(-2.26554711078612,10.6614122838642,12.0623036240949));
#244=CARTESIAN_POINT('',(-2.26554711078634,10.6614122838642,-4.8230429427763));
#245=CARTESIAN_POINT('',(-2.26554711078644,10.6614122838644,-21.7083895096473));
#246=CARTESIAN_POINT('',(14.6197994560845,10.6614122838651,-21.7083895096475));
#247=CARTESIAN_POINT('',(14.6197994560847,16.7661028701353,4.49431596722411));
#248=CARTESIAN_POINT('',(5.30244054608414,16.7661028701349,4.49431596722426));
#249=CARTESIAN_POINT('',(5.30244054608406,16.7661028701351,-4.82304294277641));
#250=CARTESIAN_POINT('',(5.30244054608414,16.7661028701353,-14.1404018527768));
#251=CARTESIAN_POINT('',(14.6197994560845,16.7661028701355,-14.1404018527771));
#252=CARTESIAN_POINT('',(14.6197994560847,16.7661028701354,-4.82304294277651));
#253=CARTESIAN_POINT('',(14.6197994560847,16.7661028701354,-4.82304294277638));
#254=CARTESIAN_POINT('',(14.6197994560847,16.7661028701354,-4.82304294277651));
#255=CARTESIAN_POINT('',(14.6197994560847,16.7661028701354,-4.82304294277638));
#256=CARTESIAN_POINT('',(14.6197994560847,16.7661028701354,-4.82304294277651));
#257=CARTESIAN_POINT('',(13.3697994560847,0.928869082216878,-4.8230429427763));
#258=CARTESIAN_POINT('',(13.3697994560847,0.928869082216864,-3.5730429427763));
#259=CARTESIAN_POINT('',(14.6197994560847,0.928869082216864,-3.5730429427763));
#260=CARTESIAN_POINT('',(15.8697994560847,0.928869082216864,-3.5730429427763));
#261=CARTESIAN_POINT('',(15.8697994560847,0.928869082216878,-4.8230429427763));
#262=CARTESIAN_POINT('',(13.3697994560847,12.785269467107,-4.82304294277646));
#263=CARTESIAN_POINT('',(13.3697994560847,12.7852694671069,-3.57304294277646));
#264=CARTESIAN_POINT('',(14.6197994560847,12.7852694671069,-3.57304294277646));
#265=CARTESIAN_POINT('',(15.8697994560847,12.7852694671069,-3.57304294277646));
#266=CARTESIAN_POINT('',(15.8697994560847,12.785269467107,-4.82304294277646));
#267=CARTESIAN_POINT('',(14.6197994560845,7.16141228386529,-21.7083895096475));
#268=CARTESIAN_POINT('',(14.6197994560847,16.7661028701354,-4.82304294277651));
#269=CARTESIAN_POINT('',(14.6197994560845,10.6614122838651,-21.7083895096475));
#270=CARTESIAN_POINT('',(0.271453399555729,10.6614122838641,4.07863634404539));
#271=CARTESIAN_POINT('',(0.271453399555502,10.6614122838645,-13.7247222295983));
#272=CARTESIAN_POINT('',(0.271453399555501,7.16141228386468,-13.724722229598));
#273=CARTESIAN_POINT('',(0.271453399555728,7.16141228386421,4.07863634404539));
#274=CARTESIAN_POINT('',(15.8697994560847,12.785269467107,-4.82304294277646));
#275=CARTESIAN_POINT('',(15.8697994560847,7.16141228386458,-4.82304294277638));
#276=CARTESIAN_POINT('',(14.6197994560849,10.6614122838645,12.0623036240946));
#277=CARTESIAN_POINT('',(13.3697994560847,7.16141228386457,-4.82304294277638));
#278=CARTESIAN_POINT('',(13.3697994560847,12.785269467107,-4.82304294277646));
#279=CARTESIAN_POINT('',(14.6197994560845,7.16141228386529,-21.7083895096475));
#280=CARTESIAN_POINT('',(24.3674460471334,7.1614122838645,-21.708389509647));
#281=CARTESIAN_POINT('',(29.2421038434091,7.16141228386491,-13.2671617889188));
#282=CARTESIAN_POINT('',(34.1167616396846,7.16141228386463,-4.82593406818978));
#283=CARTESIAN_POINT('',(29.2446074885465,7.1614122838645,3.61673896773432));
#284=CARTESIAN_POINT('',(24.3724533374084,7.16141228386389,12.0594120036592));
#285=CARTESIAN_POINT('',(14.624807175036,7.16141228386446,12.06230288152));
#286=CARTESIAN_POINT('',(5.22623013122823,7.16141228386449,12.0650902352924));
#287=CARTESIAN_POINT('',(0.271453399555728,7.1614122838642,4.07863634404539));
#288=CARTESIAN_POINT('',(14.6197994560845,7.16141228386529,-21.7083895096475));
#289=CARTESIAN_POINT('',(14.6197994560845,10.6614122838651,-21.7083895096475));
#290=CARTESIAN_POINT('',(14.6197994560845,10.6614122838651,-21.7083895096475));
#291=CARTESIAN_POINT('',(14.6197994560845,16.7661028701355,-14.1404018527771));
#292=CARTESIAN_POINT('',(14.6197994560847,16.7661028701354,-4.82304294277651));
#293=CARTESIAN_POINT('',(14.6197994560845,10.6614122838651,-21.7083895096475));
#294=CARTESIAN_POINT('',(24.3674460471336,10.661412283865,-21.708389509648));
#295=CARTESIAN_POINT('',(29.2421038434091,10.6614122838648,-13.267161788919));
#296=CARTESIAN_POINT('',(34.1167616396848,10.6614122838651,-4.82593406819052));
#297=CARTESIAN_POINT('',(29.2446074885464,10.6614122838644,3.61673896773447));
#298=CARTESIAN_POINT('',(24.3724533374082,10.6614122838645,12.0594120036595));
#299=CARTESIAN_POINT('',(14.6248071750359,10.6614122838645,12.0623028815203));
#300=CARTESIAN_POINT('',(14.6223033156155,10.6614122838645,12.0623036240946));
#301=CARTESIAN_POINT('',(14.6197994560849,10.6614122838645,12.0623036240946));
#302=CARTESIAN_POINT('',(0.271453399555729,10.6614122838641,4.07863634404539));
#303=CARTESIAN_POINT('',(0.271453399555502,11.2672715249915,2.65392615465062));
#304=CARTESIAN_POINT('',(0.271453399559368,11.7288498350432,1.19084895702343));
#305=CARTESIAN_POINT('',(0.271453399559368,12.3485487329682,-1.79502182700531));
#306=CARTESIAN_POINT('',(0.271453399555502,12.5045273794389,-3.30699864144759));
#307=CARTESIAN_POINT('',(0.271453399555502,12.5045273794389,-4.82304294277634));
#308=CARTESIAN_POINT('',(0.271453399555502,12.5045273794389,-6.33908724410441));
#309=CARTESIAN_POINT('',(0.271453399559368,12.3485487329678,-7.85106405854804));
#310=CARTESIAN_POINT('',(0.27145339955914,11.7288498350436,-10.8369348425745));
#311=CARTESIAN_POINT('',(0.271453399555502,11.2672715249914,-12.3000120402037));
#312=CARTESIAN_POINT('',(0.271453399555502,10.6614122838645,-13.7247222295983));
#313=CARTESIAN_POINT('',(0.271453399555502,10.6614122838645,-13.7247222295983));
#314=CARTESIAN_POINT('',(0.271453399555501,7.16141228386468,-13.724722229598));
#315=CARTESIAN_POINT('',(0.271453399555728,7.16141228386421,4.07863634404539));
#316=CARTESIAN_POINT('',(0.271453399555501,7.16141228386468,-13.724722229598));
#317=CARTESIAN_POINT('',(0.271453399555728,7.16141228386421,4.07863634404539));
#318=CARTESIAN_POINT('',(0.271453399555729,10.6614122838641,4.07863634404539));
#319=CARTESIAN_POINT('',(0.271453399555501,7.16141228386468,-13.724722229598));
#320=CARTESIAN_POINT('',(5.22450132436143,7.16141228386491,-21.7083895096473));
#321=CARTESIAN_POINT('',(14.6197994560845,7.16141228386529,-21.7083895096475));
#322=CARTESIAN_POINT('',(0.271453399555502,10.6614122838645,-13.7247222295983));
#323=CARTESIAN_POINT('',(5.22450132436142,10.6614122838643,-21.7083895096476));
#324=CARTESIAN_POINT('',(14.6197994560845,10.6614122838651,-21.7083895096475));
#325=CARTESIAN_POINT('',(15.8697994560847,12.785269467107,-4.82304294277646));
#326=CARTESIAN_POINT('',(15.8697994560847,12.785269467107,-6.07304294277646));
#327=CARTESIAN_POINT('',(14.6197994560847,12.785269467107,-6.07304294277646));
#328=CARTESIAN_POINT('',(13.3697994560847,12.785269467107,-6.07304294277646));
#329=CARTESIAN_POINT('',(13.3697994560847,12.785269467107,-4.82304294277646));
#330=CARTESIAN_POINT('',(15.8697994560847,7.16141228386457,-4.82304294277638));
#331=CARTESIAN_POINT('',(15.8697994560847,7.16141228386458,-6.07304294277638));
#332=CARTESIAN_POINT('',(14.6197994560847,7.16141228386458,-6.07304294277638));
#333=CARTESIAN_POINT('',(13.3697994560847,7.16141228386458,-6.07304294277638));
#334=CARTESIAN_POINT('',(13.3697994560847,7.16141228386457,-4.82304294277638));
#335=CARTESIAN_POINT('',(15.8697994560847,7.16141228386458,-4.82304294277638));
#336=CARTESIAN_POINT('',(15.8697994560847,12.785269467107,-4.82304294277646));
#337=CARTESIAN_POINT('',(14.6197994560849,10.6614122838645,12.0623036240946));
#338=CARTESIAN_POINT('',(14.6197994560847,16.7661028701353,4.49431596722411));
#339=CARTESIAN_POINT('',(14.6197994560847,16.7661028701354,-4.82304294277651));
#340=CARTESIAN_POINT('',(14.6197994560849,10.6614122838645,12.0623036240946));
#341=CARTESIAN_POINT('',(5.224501324362,10.6614122838645,12.0623036240945));
#342=CARTESIAN_POINT('',(0.271453399555729,10.6614122838641,4.07863634404539));
#343=CARTESIAN_POINT('',(13.3697994560847,7.16141228386458,-4.82304294277638));
#344=CARTESIAN_POINT('',(13.3697994560847,12.785269467107,-4.82304294277646));
#345=CARTESIAN_POINT('',(13.3697994560847,12.785269467107,-4.82304294277646));
#346=CARTESIAN_POINT('',(13.3697994560847,12.7852694671069,-3.57304294277646));
#347=CARTESIAN_POINT('',(14.6197994560847,12.7852694671069,-3.57304294277646));
#348=CARTESIAN_POINT('',(15.8697994560847,12.7852694671069,-3.57304294277646));
#349=CARTESIAN_POINT('',(15.8697994560847,12.785269467107,-4.82304294277646));
#350=CARTESIAN_POINT('',(13.3697994560847,7.16141228386457,-4.82304294277638));
#351=CARTESIAN_POINT('',(13.3697994560847,7.16141228386456,-3.57304294277638));
#352=CARTESIAN_POINT('',(14.6197994560847,7.16141228386456,-3.57304294277638));
#353=CARTESIAN_POINT('',(15.8697994560847,7.16141228386456,-3.57304294277638));
#354=CARTESIAN_POINT('',(15.8697994560847,7.16141228386457,-4.82304294277638));
#355=CARTESIAN_POINT('',(0.,0.,0.));
ENDSEC;
END-ISO-10303-21;
