ISO-10303-21;
HEADER;
FILE_DESCRIPTION(('CATIA V5 STEP Exchange'),'2;1');

FILE_NAME('D:\\Perso\\bag_ep_0001-1.stp','2023-09-16T10:46:05+00:00',('none'),('none'),'CATIA Version 5 Release 19 GA (IN-10)','CATIA V5 STEP AP203 Edition 2','none');

FILE_SCHEMA(('AP203_CONFIGURATION_CONTROLLED_3D_DESIGN_OF_MECHANICAL_PARTS_AND_ASSEMBLIES_MIM_LF  { 1 0 10303 403 2 1 2}'));

ENDSEC;
/* file written by CATIA V5R19 */
DATA;
#5=PRODUCT('Bague_\X2\00E9\X0\paul\X2\00E9\X0\e','','',(#2)) ;
#2=PRODUCT_CONTEXT(' ',#1,'mechanical') ;
#1=APPLICATION_CONTEXT('configuration controlled 3D design of mechanical parts and assemblies') ;
#14=PRODUCT_DEFINITION('',' ',#6,#3) ;
#3=PRODUCT_DEFINITION_CONTEXT('part definition',#1,' ') ;
#15=PRODUCT_DEFINITION_SHAPE(' ',' ',#14) ;
#490=SHAPE_REPRESENTATION_RELATIONSHIP(' ',' ',#24,#489) ;
#34=STYLED_ITEM(' ',(#33),#26) ;
#33=PRESENTATION_STYLE_ASSIGNMENT((#32)) ;
#32=SURFACE_STYLE_USAGE(.BOTH.,#31) ;
#31=SURFACE_SIDE_STYLE(' ',(#30)) ;
#30=SURFACE_STYLE_FILL_AREA(#29) ;
#29=FILL_AREA_STYLE(' ',(#28)) ;
#28=FILL_AREA_STYLE_COLOUR(' ',#27) ;
#43=VECTOR('Line Direction',#42,1.) ;
#59=VECTOR('Line Direction',#58,1.) ;
#100=VECTOR('Line Direction',#99,1.) ;
#114=VECTOR('Line Direction',#113,1.) ;
#176=VECTOR('Line Direction',#175,1.) ;
#190=VECTOR('Line Direction',#189,1.) ;
#252=VECTOR('Line Direction',#251,1.) ;
#259=VECTOR('Line Direction',#258,1.) ;
#300=VECTOR('Line Direction',#299,1.) ;
#307=VECTOR('Line Direction',#306,1.) ;
#343=VECTOR('Line Direction',#342,1.) ;
#350=VECTOR('Line Direction',#349,1.) ;
#400=VECTOR('Line Direction',#399,1.) ;
#405=VECTOR('Line Direction',#404,1.) ;
#462=VECTOR('Line Direction',#461,1.) ;
#467=VECTOR('Line Direction',#466,1.) ;
#37=DIRECTION('Axis2P3D Direction',(-1.,0.,0.)) ;
#38=DIRECTION('Axis2P3D XDirection',(0.,0.87758256189,-0.479425538604)) ;
#42=DIRECTION('Vector Direction',(-1.,0.,0.)) ;
#51=DIRECTION('Axis2P3D Direction',(-1.,0.,0.)) ;
#58=DIRECTION('Vector Direction',(-1.,0.,0.)) ;
#65=DIRECTION('Axis2P3D Direction',(-1.,0.,0.)) ;
#77=DIRECTION('Axis2P3D Direction',(-1.,0.,0.)) ;
#82=DIRECTION('Axis2P3D Direction',(-1.,0.,0.)) ;
#94=DIRECTION('Axis2P3D Direction',(-1.,1.7763568394E-014,1.7763568394E-015)) ;
#95=DIRECTION('Axis2P3D XDirection',(-1.72538661091E-014,-0.985652001555,0.168790200635)) ;
#99=DIRECTION('Vector Direction',(-0.707106781187,-0.62054458633,0.339005038866)) ;
#106=DIRECTION('Axis2P3D Direction',(-1.,8.01616048924E-016,4.68104463486E-015)) ;
#113=DIRECTION('Vector Direction',(-0.707106781187,0.620544580564,-0.339005049421)) ;
#125=DIRECTION('Axis2P3D Direction',(-1.,1.06581410364E-014,0.)) ;
#126=DIRECTION('Axis2P3D XDirection',(9.35133201335E-015,0.87758256189,-0.479425538604)) ;
#130=DIRECTION('Axis2P3D Direction',(-1.,2.44976142908E-015,4.48425821706E-015)) ;
#142=DIRECTION('Axis2P3D Direction',(-1.,0.,0.)) ;
#143=DIRECTION('Axis2P3D XDirection',(0.,1.,0.)) ;
#151=DIRECTION('Axis2P3D Direction',(-1.,0.,0.)) ;
#160=DIRECTION('Axis2P3D Direction',(-1.,0.,0.)) ;
#170=DIRECTION('Axis2P3D Direction',(1.,-7.46069872548E-014,4.26325641456E-014)) ;
#171=DIRECTION('Axis2P3D XDirection',(-7.84985053515E-014,-0.99512817882,0.0985895923472)) ;
#175=DIRECTION('Vector Direction',(0.707106781186,-0.620544580564,0.339005049421)) ;
#182=DIRECTION('Axis2P3D Direction',(-1.,-3.45747720478E-015,-3.48985416431E-014)) ;
#189=DIRECTION('Vector Direction',(0.707106781187,0.620544580564,-0.339005049421)) ;
#201=DIRECTION('Axis2P3D Direction',(1.,-1.84741111298E-013,-1.01252339846E-013)) ;
#202=DIRECTION('Axis2P3D XDirection',(1.13533073176E-013,0.87758256189,-0.479425538604)) ;
#206=DIRECTION('Axis2P3D Direction',(-1.,8.50629844995E-014,1.55706748699E-013)) ;
#218=DIRECTION('Axis2P3D Direction',(-1.,0.,0.)) ;
#219=DIRECTION('Axis2P3D XDirection',(0.,1.,0.)) ;
#223=DIRECTION('Axis2P3D Direction',(-1.,0.,0.)) ;
#232=DIRECTION('Axis2P3D Direction',(-1.,0.,0.)) ;
#246=DIRECTION('Axis2P3D Direction',(-1.,1.06581410364E-014,-3.5527136788E-015)) ;
#247=DIRECTION('Axis2P3D XDirection',(-1.11952566357E-014,-0.982696013217,0.18522566131)) ;
#251=DIRECTION('Vector Direction',(-0.707106781187,-0.620544582458,0.339005045954)) ;
#258=DIRECTION('Vector Direction',(-0.707106781187,0.620544580564,-0.339005049421)) ;
#265=DIRECTION('Axis2P3D Direction',(-1.,-2.8100146953E-016,-1.4908248774E-015)) ;
#277=DIRECTION('Axis2P3D Direction',(-1.,-7.1054273576E-015,1.06581410364E-014)) ;
#278=DIRECTION('Axis2P3D XDirection',(-1.13269655373E-014,0.87758256189,-0.479425538604)) ;
#282=DIRECTION('Axis2P3D Direction',(-1.,2.85108393101E-015,5.21887412928E-015)) ;
#294=DIRECTION('Axis2P3D Direction',(-1.,0.,0.)) ;
#295=DIRECTION('Axis2P3D XDirection',(0.,0.87758256189,-0.479425538604)) ;
#299=DIRECTION('Vector Direction',(-1.,0.,0.)) ;
#306=DIRECTION('Vector Direction',(-1.,0.,0.)) ;
#313=DIRECTION('Axis2P3D Direction',(-1.,0.,0.)) ;
#325=DIRECTION('Axis2P3D Direction',(-1.,0.,0.)) ;
#337=DIRECTION('Axis2P3D Direction',(1.,-3.5527136788E-015,-7.1054273576E-015)) ;
#338=DIRECTION('Axis2P3D XDirection',(-2.23905132714E-015,-0.982696013217,0.18522566131)) ;
#342=DIRECTION('Vector Direction',(0.707106781187,-0.620544580564,0.339005049421)) ;
#349=DIRECTION('Vector Direction',(0.707106781187,0.620544580564,-0.339005049421)) ;
#356=DIRECTION('Axis2P3D Direction',(-1.,1.41522201403E-015,7.50831726641E-015)) ;
#368=DIRECTION('Axis2P3D Direction',(1.,-0.,3.5527136788E-015)) ;
#369=DIRECTION('Axis2P3D XDirection',(1.71221572076E-015,0.87758256189,-0.479425538604)) ;
#373=DIRECTION('Axis2P3D Direction',(-1.,-1.49475273902E-015,-2.73612653577E-015)) ;
#385=DIRECTION('Axis2P3D Direction',(-1.,0.,0.)) ;
#386=DIRECTION('Axis2P3D XDirection',(0.,0.87758256189,-0.479425538604)) ;
#390=DIRECTION('Axis2P3D Direction',(-1.,0.,0.)) ;
#399=DIRECTION('Vector Direction',(-1.,0.,0.)) ;
#404=DIRECTION('Vector Direction',(-1.,0.,0.)) ;
#416=DIRECTION('Axis2P3D Direction',(-1.,0.,0.)) ;
#428=DIRECTION('Axis2P3D Direction',(-1.,0.,0.)) ;
#429=DIRECTION('Axis2P3D XDirection',(0.,1.,0.)) ;
#437=DIRECTION('Axis2P3D Direction',(-1.,0.,0.)) ;
#446=DIRECTION('Axis2P3D Direction',(-1.,0.,0.)) ;
#456=DIRECTION('Axis2P3D Direction',(-1.,-8.17124146124E-014,7.1054273576E-015)) ;
#457=DIRECTION('Axis2P3D XDirection',(7.98155943675E-014,-0.949868301421,0.312650299785)) ;
#461=DIRECTION('Vector Direction',(-0.707106781186,-0.620544662235,0.339004899923)) ;
#466=DIRECTION('Vector Direction',(-0.707106781187,0.620544580564,-0.339005049421)) ;
#478=DIRECTION('Axis2P3D Direction',(-1.,-1.81188397619E-013,-9.94759830064E-014)) ;
#479=DIRECTION('Axis2P3D XDirection',(-1.11294021849E-013,0.87758256189,-0.479425538604)) ;
#22=CARTESIAN_POINT(' ',(0.,0.,0.)) ;
#36=CARTESIAN_POINT('Axis2P3D Location',(3.,-4.3,0.)) ;
#41=CARTESIAN_POINT('Line Origine',(4.,-9.78489101181,2.99640961628)) ;
#45=CARTESIAN_POINT('Vertex',(5.75,-9.78489101181,2.99640961628)) ;
#47=CARTESIAN_POINT('Vertex',(2.,-9.78489101181,2.99640961628)) ;
#50=CARTESIAN_POINT('Axis2P3D Location',(2.,-4.3,0.)) ;
#54=CARTESIAN_POINT('Vertex',(2.,1.18489101181,-2.99640961628)) ;
#57=CARTESIAN_POINT('Line Origine',(4.,1.18489101181,-2.99640961628)) ;
#61=CARTESIAN_POINT('Vertex',(5.75,1.18489101181,-2.99640961628)) ;
#64=CARTESIAN_POINT('Axis2P3D Location',(5.75,-4.3,0.)) ;
#76=CARTESIAN_POINT('Axis2P3D Location',(2.,-4.3,0.)) ;
#81=CARTESIAN_POINT('Axis2P3D Location',(5.75,-4.3,0.)) ;
#93=CARTESIAN_POINT('Axis2P3D Location',(12.,-4.3,-1.24344978758E-014)) ;
#98=CARTESIAN_POINT('Line Origine',(5.875,-9.67519324152,2.93648133252)) ;
#102=CARTESIAN_POINT('Vertex',(6.,-9.56549552272,2.87655295454)) ;
#105=CARTESIAN_POINT('Axis2P3D Location',(6.,-4.3,-1.7763568394E-015)) ;
#109=CARTESIAN_POINT('Vertex',(6.,0.965495371342,-2.87655323163)) ;
#112=CARTESIAN_POINT('Line Origine',(5.875,1.07519319158,-2.93648142395)) ;
#124=CARTESIAN_POINT('Axis2P3D Location',(12.,-4.3,-1.7763568394E-015)) ;
#129=CARTESIAN_POINT('Axis2P3D Location',(6.,-4.3,-1.7763568394E-015)) ;
#141=CARTESIAN_POINT('Axis2P3D Location',(6.,0.,0.)) ;
#150=CARTESIAN_POINT('Axis2P3D Location',(6.,-4.3,1.27675647832E-015)) ;
#154=CARTESIAN_POINT('Vertex',(6.,-8.29300046074,2.18138655917)) ;
#156=CARTESIAN_POINT('Vertex',(6.,-0.306999343399,-2.18138620065)) ;
#159=CARTESIAN_POINT('Axis2P3D Location',(6.,-4.3,-2.33146835171E-015)) ;
#169=CARTESIAN_POINT('Axis2P3D Location',(1.45,-4.3,-1.84208204246E-013)) ;
#174=CARTESIAN_POINT('Line Origine',(5.875,-8.18330283636,2.12145800832)) ;
#178=CARTESIAN_POINT('Vertex',(5.75,-8.07360501613,2.061529816)) ;
#181=CARTESIAN_POINT('Axis2P3D Location',(5.75,-4.3,-8.88178419686E-016)) ;
#185=CARTESIAN_POINT('Vertex',(5.75,-0.526394983871,-2.061529816)) ;
#188=CARTESIAN_POINT('Line Origine',(5.875,-0.416697163635,-2.12145800832)) ;
#200=CARTESIAN_POINT('Axis2P3D Location',(1.45,-4.3,4.35829150547E-013)) ;
#205=CARTESIAN_POINT('Axis2P3D Location',(5.75,-4.3,4.44089209901E-016)) ;
#217=CARTESIAN_POINT('Axis2P3D Location',(2.,4.7,0.)) ;
#222=CARTESIAN_POINT('Axis2P3D Location',(2.,-4.3,7.77156117238E-016)) ;
#226=CARTESIAN_POINT('Vertex',(2.,3.37884741654,-4.19497346279)) ;
#228=CARTESIAN_POINT('Vertex',(2.,-11.9788474392,4.19497342126)) ;
#231=CARTESIAN_POINT('Axis2P3D Location',(2.,-4.3,9.99200722163E-016)) ;
#245=CARTESIAN_POINT('Axis2P3D Location',(10.75,-4.3,2.93098878501E-014)) ;
#250=CARTESIAN_POINT('Line Origine',(1.875,-12.0885452605,4.2549016116)) ;
#254=CARTESIAN_POINT('Vertex',(1.75,-12.198243057,4.31482984744)) ;
#257=CARTESIAN_POINT('Line Origine',(1.875,3.48854523678,-4.25490165511)) ;
#261=CARTESIAN_POINT('Vertex',(1.75,3.59824305701,-4.31482984744)) ;
#264=CARTESIAN_POINT('Axis2P3D Location',(1.75,-4.3,-2.6645352591E-015)) ;
#276=CARTESIAN_POINT('Axis2P3D Location',(10.75,-4.3,-9.50350909079E-014)) ;
#281=CARTESIAN_POINT('Axis2P3D Location',(1.75,-4.3,8.88178419699E-016)) ;
#293=CARTESIAN_POINT('Axis2P3D Location',(3.,-4.3,0.)) ;
#298=CARTESIAN_POINT('Line Origine',(1.,3.59824305701,-4.31482984744)) ;
#302=CARTESIAN_POINT('Vertex',(0.25,3.59824305701,-4.31482984744)) ;
#305=CARTESIAN_POINT('Line Origine',(1.,-12.198243057,4.31482984744)) ;
#309=CARTESIAN_POINT('Vertex',(0.25,-12.198243057,4.31482984744)) ;
#312=CARTESIAN_POINT('Axis2P3D Location',(0.25,-4.3,0.)) ;
#324=CARTESIAN_POINT('Axis2P3D Location',(0.25,-4.3,0.)) ;
#336=CARTESIAN_POINT('Axis2P3D Location',(-8.75,-4.3,6.30606677987E-014)) ;
#341=CARTESIAN_POINT('Line Origine',(0.125,-12.0885452368,4.25490165511)) ;
#345=CARTESIAN_POINT('Vertex',(0.,-11.9788474392,4.19497342126)) ;
#348=CARTESIAN_POINT('Line Origine',(0.125,3.48854523678,-4.25490165511)) ;
#352=CARTESIAN_POINT('Vertex',(0.,3.37884741654,-4.19497346279)) ;
#355=CARTESIAN_POINT('Axis2P3D Location',(1.95399252334E-014,-4.3,8.881784197E-016)) ;
#367=CARTESIAN_POINT('Axis2P3D Location',(-8.75,-4.3,-3.5527136788E-014)) ;
#372=CARTESIAN_POINT('Axis2P3D Location',(-1.42108547152E-014,-4.3,-4.4408920985E-015)) ;
#384=CARTESIAN_POINT('Axis2P3D Location',(3.,-4.3,0.)) ;
#389=CARTESIAN_POINT('Axis2P3D Location',(0.25,-4.3,0.)) ;
#393=CARTESIAN_POINT('Vertex',(0.25,-0.526394983871,-2.061529816)) ;
#395=CARTESIAN_POINT('Vertex',(0.25,-8.07360501613,2.061529816)) ;
#398=CARTESIAN_POINT('Line Origine',(3.,-8.07360501613,2.061529816)) ;
#403=CARTESIAN_POINT('Line Origine',(3.,-0.526394983871,-2.061529816)) ;
#415=CARTESIAN_POINT('Axis2P3D Location',(0.25,-4.3,0.)) ;
#427=CARTESIAN_POINT('Axis2P3D Location',(0.,4.7,0.)) ;
#436=CARTESIAN_POINT('Axis2P3D Location',(0.,-4.3,-1.88737914186E-015)) ;
#440=CARTESIAN_POINT('Vertex',(0.,-0.306999343399,-2.18138620065)) ;
#442=CARTESIAN_POINT('Vertex',(0.,-8.29300046074,2.18138655917)) ;
#445=CARTESIAN_POINT('Axis2P3D Location',(0.,-4.3,-4.4408920985E-016)) ;
#455=CARTESIAN_POINT('Axis2P3D Location',(4.55,-4.3,-2.87769807983E-014)) ;
#460=CARTESIAN_POINT('Line Origine',(0.125,-8.18330334745,2.12145707278)) ;
#465=CARTESIAN_POINT('Line Origine',(0.125,-0.416697163635,-2.12145800832)) ;
#477=CARTESIAN_POINT('Axis2P3D Location',(4.55,-4.3,4.27302637718E-013)) ;
#491=DRAUGHTING_MODEL('',(),#21) ;
#492=MECHANICAL_DESIGN_GEOMETRIC_PRESENTATION_REPRESENTATION(' ',(#34),#21) ;
#24=SHAPE_REPRESENTATION(' ',(#23),#21) ;
#23=AXIS2_PLACEMENT_3D(' ',#22,$,$) ;
#39=AXIS2_PLACEMENT_3D('Cylinder Axis2P3D',#36,#37,#38) ;
#52=AXIS2_PLACEMENT_3D('Circle Axis2P3D',#50,#51,$) ;
#66=AXIS2_PLACEMENT_3D('Circle Axis2P3D',#64,#65,$) ;
#78=AXIS2_PLACEMENT_3D('Circle Axis2P3D',#76,#77,$) ;
#83=AXIS2_PLACEMENT_3D('Circle Axis2P3D',#81,#82,$) ;
#96=AXIS2_PLACEMENT_3D('Cone Axis2P3D',#93,#94,#95) ;
#107=AXIS2_PLACEMENT_3D('Circle Axis2P3D',#105,#106,$) ;
#127=AXIS2_PLACEMENT_3D('Cone Axis2P3D',#124,#125,#126) ;
#131=AXIS2_PLACEMENT_3D('Circle Axis2P3D',#129,#130,$) ;
#144=AXIS2_PLACEMENT_3D('Plane Axis2P3D',#141,#142,#143) ;
#152=AXIS2_PLACEMENT_3D('Circle Axis2P3D',#150,#151,$) ;
#161=AXIS2_PLACEMENT_3D('Circle Axis2P3D',#159,#160,$) ;
#172=AXIS2_PLACEMENT_3D('Cone Axis2P3D',#169,#170,#171) ;
#183=AXIS2_PLACEMENT_3D('Circle Axis2P3D',#181,#182,$) ;
#203=AXIS2_PLACEMENT_3D('Cone Axis2P3D',#200,#201,#202) ;
#207=AXIS2_PLACEMENT_3D('Circle Axis2P3D',#205,#206,$) ;
#220=AXIS2_PLACEMENT_3D('Plane Axis2P3D',#217,#218,#219) ;
#224=AXIS2_PLACEMENT_3D('Circle Axis2P3D',#222,#223,$) ;
#233=AXIS2_PLACEMENT_3D('Circle Axis2P3D',#231,#232,$) ;
#248=AXIS2_PLACEMENT_3D('Cone Axis2P3D',#245,#246,#247) ;
#266=AXIS2_PLACEMENT_3D('Circle Axis2P3D',#264,#265,$) ;
#279=AXIS2_PLACEMENT_3D('Cone Axis2P3D',#276,#277,#278) ;
#283=AXIS2_PLACEMENT_3D('Circle Axis2P3D',#281,#282,$) ;
#296=AXIS2_PLACEMENT_3D('Cylinder Axis2P3D',#293,#294,#295) ;
#314=AXIS2_PLACEMENT_3D('Circle Axis2P3D',#312,#313,$) ;
#326=AXIS2_PLACEMENT_3D('Circle Axis2P3D',#324,#325,$) ;
#339=AXIS2_PLACEMENT_3D('Cone Axis2P3D',#336,#337,#338) ;
#357=AXIS2_PLACEMENT_3D('Circle Axis2P3D',#355,#356,$) ;
#370=AXIS2_PLACEMENT_3D('Cone Axis2P3D',#367,#368,#369) ;
#374=AXIS2_PLACEMENT_3D('Circle Axis2P3D',#372,#373,$) ;
#387=AXIS2_PLACEMENT_3D('Cylinder Axis2P3D',#384,#385,#386) ;
#391=AXIS2_PLACEMENT_3D('Circle Axis2P3D',#389,#390,$) ;
#417=AXIS2_PLACEMENT_3D('Circle Axis2P3D',#415,#416,$) ;
#430=AXIS2_PLACEMENT_3D('Plane Axis2P3D',#427,#428,#429) ;
#438=AXIS2_PLACEMENT_3D('Circle Axis2P3D',#436,#437,$) ;
#447=AXIS2_PLACEMENT_3D('Circle Axis2P3D',#445,#446,$) ;
#458=AXIS2_PLACEMENT_3D('Cone Axis2P3D',#455,#456,#457) ;
#480=AXIS2_PLACEMENT_3D('Cone Axis2P3D',#477,#478,#479) ;
#13=DATE_AND_TIME(#11,#12) ;
#12=LOCAL_TIME(12,46,2.,#10) ;
#10=COORDINATED_UNIVERSAL_TIME_OFFSET(0,0,.AHEAD.) ;
#7=PRODUCT_CATEGORY('part','specification') ;
#11=CALENDAR_DATE(2023,16,9) ;
#8=PRODUCT_RELATED_PRODUCT_CATEGORY('part',$,(#5)) ;
#20=UNCERTAINTY_MEASURE_WITH_UNIT(LENGTH_MEASURE(0.005),#16,'distance_accuracy_value','CONFUSED CURVE UNCERTAINTY') ;
#167=FACE_BOUND('',#164,.T.) ;
#243=FACE_BOUND('',#240,.T.) ;
#453=FACE_BOUND('',#450,.T.) ;
#49=EDGE_CURVE('',#46,#48,#44,.T.) ;
#56=EDGE_CURVE('',#55,#48,#53,.T.) ;
#63=EDGE_CURVE('',#62,#55,#60,.T.) ;
#68=EDGE_CURVE('',#62,#46,#67,.T.) ;
#80=EDGE_CURVE('',#48,#55,#79,.T.) ;
#85=EDGE_CURVE('',#46,#62,#84,.T.) ;
#104=EDGE_CURVE('',#46,#103,#101,.F.) ;
#111=EDGE_CURVE('',#103,#110,#108,.T.) ;
#116=EDGE_CURVE('',#62,#110,#115,.F.) ;
#133=EDGE_CURVE('',#110,#103,#132,.T.) ;
#158=EDGE_CURVE('',#155,#157,#153,.T.) ;
#163=EDGE_CURVE('',#157,#155,#162,.T.) ;
#180=EDGE_CURVE('',#155,#179,#177,.F.) ;
#187=EDGE_CURVE('',#179,#186,#184,.T.) ;
#192=EDGE_CURVE('',#157,#186,#191,.F.) ;
#209=EDGE_CURVE('',#186,#179,#208,.T.) ;
#230=EDGE_CURVE('',#227,#229,#225,.T.) ;
#235=EDGE_CURVE('',#229,#227,#234,.T.) ;
#256=EDGE_CURVE('',#255,#229,#253,.F.) ;
#263=EDGE_CURVE('',#262,#227,#260,.F.) ;
#268=EDGE_CURVE('',#255,#262,#267,.T.) ;
#285=EDGE_CURVE('',#262,#255,#284,.T.) ;
#304=EDGE_CURVE('',#262,#303,#301,.T.) ;
#311=EDGE_CURVE('',#255,#310,#308,.T.) ;
#316=EDGE_CURVE('',#303,#310,#315,.T.) ;
#328=EDGE_CURVE('',#310,#303,#327,.T.) ;
#347=EDGE_CURVE('',#346,#310,#344,.T.) ;
#354=EDGE_CURVE('',#353,#303,#351,.T.) ;
#359=EDGE_CURVE('',#346,#353,#358,.T.) ;
#376=EDGE_CURVE('',#353,#346,#375,.T.) ;
#397=EDGE_CURVE('',#394,#396,#392,.T.) ;
#402=EDGE_CURVE('',#396,#179,#401,.F.) ;
#407=EDGE_CURVE('',#394,#186,#406,.F.) ;
#419=EDGE_CURVE('',#396,#394,#418,.T.) ;
#444=EDGE_CURVE('',#441,#443,#439,.T.) ;
#449=EDGE_CURVE('',#443,#441,#448,.T.) ;
#464=EDGE_CURVE('',#396,#443,#463,.T.) ;
#469=EDGE_CURVE('',#394,#441,#468,.T.) ;
#145=PLANE('Plane',#144) ;
#221=PLANE('Plane',#220) ;
#431=PLANE('Plane',#430) ;
#70=ORIENTED_EDGE('',*,*,#49,.T.) ;
#71=ORIENTED_EDGE('',*,*,#56,.F.) ;
#72=ORIENTED_EDGE('',*,*,#63,.F.) ;
#73=ORIENTED_EDGE('',*,*,#68,.T.) ;
#87=ORIENTED_EDGE('',*,*,#63,.T.) ;
#88=ORIENTED_EDGE('',*,*,#80,.F.) ;
#89=ORIENTED_EDGE('',*,*,#49,.F.) ;
#90=ORIENTED_EDGE('',*,*,#85,.T.) ;
#118=ORIENTED_EDGE('',*,*,#104,.T.) ;
#119=ORIENTED_EDGE('',*,*,#111,.T.) ;
#120=ORIENTED_EDGE('',*,*,#116,.F.) ;
#121=ORIENTED_EDGE('',*,*,#85,.F.) ;
#135=ORIENTED_EDGE('',*,*,#116,.T.) ;
#136=ORIENTED_EDGE('',*,*,#133,.T.) ;
#137=ORIENTED_EDGE('',*,*,#104,.F.) ;
#138=ORIENTED_EDGE('',*,*,#68,.F.) ;
#147=ORIENTED_EDGE('',*,*,#133,.F.) ;
#148=ORIENTED_EDGE('',*,*,#111,.F.) ;
#165=ORIENTED_EDGE('',*,*,#158,.T.) ;
#166=ORIENTED_EDGE('',*,*,#163,.T.) ;
#194=ORIENTED_EDGE('',*,*,#180,.T.) ;
#195=ORIENTED_EDGE('',*,*,#187,.T.) ;
#196=ORIENTED_EDGE('',*,*,#192,.F.) ;
#197=ORIENTED_EDGE('',*,*,#158,.F.) ;
#211=ORIENTED_EDGE('',*,*,#192,.T.) ;
#212=ORIENTED_EDGE('',*,*,#209,.T.) ;
#213=ORIENTED_EDGE('',*,*,#180,.F.) ;
#214=ORIENTED_EDGE('',*,*,#163,.F.) ;
#237=ORIENTED_EDGE('',*,*,#230,.F.) ;
#238=ORIENTED_EDGE('',*,*,#235,.F.) ;
#241=ORIENTED_EDGE('',*,*,#80,.T.) ;
#242=ORIENTED_EDGE('',*,*,#56,.T.) ;
#270=ORIENTED_EDGE('',*,*,#256,.T.) ;
#271=ORIENTED_EDGE('',*,*,#235,.T.) ;
#272=ORIENTED_EDGE('',*,*,#263,.F.) ;
#273=ORIENTED_EDGE('',*,*,#268,.F.) ;
#287=ORIENTED_EDGE('',*,*,#263,.T.) ;
#288=ORIENTED_EDGE('',*,*,#230,.T.) ;
#289=ORIENTED_EDGE('',*,*,#256,.F.) ;
#290=ORIENTED_EDGE('',*,*,#285,.F.) ;
#318=ORIENTED_EDGE('',*,*,#304,.F.) ;
#319=ORIENTED_EDGE('',*,*,#285,.T.) ;
#320=ORIENTED_EDGE('',*,*,#311,.T.) ;
#321=ORIENTED_EDGE('',*,*,#316,.F.) ;
#330=ORIENTED_EDGE('',*,*,#311,.F.) ;
#331=ORIENTED_EDGE('',*,*,#268,.T.) ;
#332=ORIENTED_EDGE('',*,*,#304,.T.) ;
#333=ORIENTED_EDGE('',*,*,#328,.F.) ;
#361=ORIENTED_EDGE('',*,*,#347,.T.) ;
#362=ORIENTED_EDGE('',*,*,#328,.T.) ;
#363=ORIENTED_EDGE('',*,*,#354,.F.) ;
#364=ORIENTED_EDGE('',*,*,#359,.F.) ;
#378=ORIENTED_EDGE('',*,*,#354,.T.) ;
#379=ORIENTED_EDGE('',*,*,#316,.T.) ;
#380=ORIENTED_EDGE('',*,*,#347,.F.) ;
#381=ORIENTED_EDGE('',*,*,#376,.F.) ;
#409=ORIENTED_EDGE('',*,*,#397,.T.) ;
#410=ORIENTED_EDGE('',*,*,#402,.T.) ;
#411=ORIENTED_EDGE('',*,*,#209,.F.) ;
#412=ORIENTED_EDGE('',*,*,#407,.F.) ;
#421=ORIENTED_EDGE('',*,*,#419,.T.) ;
#422=ORIENTED_EDGE('',*,*,#407,.T.) ;
#423=ORIENTED_EDGE('',*,*,#187,.F.) ;
#424=ORIENTED_EDGE('',*,*,#402,.F.) ;
#433=ORIENTED_EDGE('',*,*,#359,.T.) ;
#434=ORIENTED_EDGE('',*,*,#376,.T.) ;
#451=ORIENTED_EDGE('',*,*,#444,.F.) ;
#452=ORIENTED_EDGE('',*,*,#449,.F.) ;
#471=ORIENTED_EDGE('',*,*,#464,.T.) ;
#472=ORIENTED_EDGE('',*,*,#449,.T.) ;
#473=ORIENTED_EDGE('',*,*,#469,.F.) ;
#474=ORIENTED_EDGE('',*,*,#419,.F.) ;
#483=ORIENTED_EDGE('',*,*,#469,.T.) ;
#484=ORIENTED_EDGE('',*,*,#444,.T.) ;
#485=ORIENTED_EDGE('',*,*,#464,.F.) ;
#486=ORIENTED_EDGE('',*,*,#397,.F.) ;
#35=CLOSED_SHELL('Closed Shell',(#75,#92,#123,#140,#168,#199,#216,#244,#275,#292,#323,#335,#366,#383,#414,#426,#454,#476,#488)) ;
#489=ADVANCED_BREP_SHAPE_REPRESENTATION('NONE',(#26),#21) ;
#6=PRODUCT_DEFINITION_FORMATION_WITH_SPECIFIED_SOURCE('',' ',#5,.NOT_KNOWN.) ;
#44=LINE('Line',#41,#43) ;
#60=LINE('Line',#57,#59) ;
#101=LINE('Line',#98,#100) ;
#115=LINE('Line',#112,#114) ;
#177=LINE('Line',#174,#176) ;
#191=LINE('Line',#188,#190) ;
#253=LINE('Line',#250,#252) ;
#260=LINE('Line',#257,#259) ;
#301=LINE('Line',#298,#300) ;
#308=LINE('Line',#305,#307) ;
#344=LINE('Line',#341,#343) ;
#351=LINE('Line',#348,#350) ;
#401=LINE('Line',#398,#400) ;
#406=LINE('Line',#403,#405) ;
#463=LINE('Line',#460,#462) ;
#468=LINE('Line',#465,#467) ;
#75=ADVANCED_FACE('Corps principal',(#74),#40,.T.) ;
#92=ADVANCED_FACE('Corps principal',(#91),#40,.T.) ;
#123=ADVANCED_FACE('Corps principal',(#122),#97,.T.) ;
#140=ADVANCED_FACE('Corps principal',(#139),#128,.T.) ;
#168=ADVANCED_FACE('Corps principal',(#149,#167),#145,.F.) ;
#199=ADVANCED_FACE('Corps principal',(#198),#173,.F.) ;
#216=ADVANCED_FACE('Corps principal',(#215),#204,.F.) ;
#244=ADVANCED_FACE('Corps principal',(#239,#243),#221,.F.) ;
#275=ADVANCED_FACE('Corps principal',(#274),#249,.T.) ;
#292=ADVANCED_FACE('Corps principal',(#291),#280,.T.) ;
#323=ADVANCED_FACE('Corps principal',(#322),#297,.T.) ;
#335=ADVANCED_FACE('Corps principal',(#334),#297,.T.) ;
#366=ADVANCED_FACE('Corps principal',(#365),#340,.T.) ;
#383=ADVANCED_FACE('Corps principal',(#382),#371,.T.) ;
#414=ADVANCED_FACE('Corps principal',(#413),#388,.F.) ;
#426=ADVANCED_FACE('Corps principal',(#425),#388,.F.) ;
#454=ADVANCED_FACE('Corps principal',(#435,#453),#431,.T.) ;
#476=ADVANCED_FACE('Corps principal',(#475),#459,.F.) ;
#488=ADVANCED_FACE('Corps principal',(#487),#481,.F.) ;
#53=CIRCLE('generated circle',#52,6.25) ;
#67=CIRCLE('generated circle',#66,6.25) ;
#79=CIRCLE('generated circle',#78,6.25) ;
#84=CIRCLE('generated circle',#83,6.25) ;
#108=CIRCLE('generated circle',#107,6.) ;
#132=CIRCLE('generated circle',#131,6.) ;
#153=CIRCLE('generated circle',#152,4.55) ;
#162=CIRCLE('generated circle',#161,4.55) ;
#184=CIRCLE('generated circle',#183,4.3) ;
#208=CIRCLE('generated circle',#207,4.3) ;
#225=CIRCLE('generated circle',#224,8.75) ;
#234=CIRCLE('generated circle',#233,8.75) ;
#267=CIRCLE('generated circle',#266,9.) ;
#284=CIRCLE('generated circle',#283,9.) ;
#315=CIRCLE('generated circle',#314,9.) ;
#327=CIRCLE('generated circle',#326,9.) ;
#358=CIRCLE('generated circle',#357,8.75) ;
#375=CIRCLE('generated circle',#374,8.75) ;
#392=CIRCLE('generated circle',#391,4.3) ;
#418=CIRCLE('generated circle',#417,4.3) ;
#439=CIRCLE('generated circle',#438,4.55) ;
#448=CIRCLE('generated circle',#447,4.55) ;
#97=CONICAL_SURFACE('Cone',#96,0.,0.785398163397) ;
#128=CONICAL_SURFACE('Cone',#127,0.,0.785398163397) ;
#173=CONICAL_SURFACE('Cone',#172,0.,0.785398163398) ;
#204=CONICAL_SURFACE('Cone',#203,0.,0.785398163398) ;
#249=CONICAL_SURFACE('Cone',#248,0.,0.785398163397) ;
#280=CONICAL_SURFACE('Cone',#279,0.,0.785398163397) ;
#340=CONICAL_SURFACE('Cone',#339,0.,0.785398163397) ;
#371=CONICAL_SURFACE('Cone',#370,0.,0.785398163397) ;
#459=CONICAL_SURFACE('Cone',#458,0.,0.785398163398) ;
#481=CONICAL_SURFACE('Cone',#480,0.,0.785398163398) ;
#40=CYLINDRICAL_SURFACE('generated cylinder',#39,6.25) ;
#297=CYLINDRICAL_SURFACE('generated cylinder',#296,9.) ;
#388=CYLINDRICAL_SURFACE('generated cylinder',#387,4.3) ;
#46=VERTEX_POINT('',#45) ;
#48=VERTEX_POINT('',#47) ;
#55=VERTEX_POINT('',#54) ;
#62=VERTEX_POINT('',#61) ;
#103=VERTEX_POINT('',#102) ;
#110=VERTEX_POINT('',#109) ;
#155=VERTEX_POINT('',#154) ;
#157=VERTEX_POINT('',#156) ;
#179=VERTEX_POINT('',#178) ;
#186=VERTEX_POINT('',#185) ;
#227=VERTEX_POINT('',#226) ;
#229=VERTEX_POINT('',#228) ;
#255=VERTEX_POINT('',#254) ;
#262=VERTEX_POINT('',#261) ;
#303=VERTEX_POINT('',#302) ;
#310=VERTEX_POINT('',#309) ;
#346=VERTEX_POINT('',#345) ;
#353=VERTEX_POINT('',#352) ;
#394=VERTEX_POINT('',#393) ;
#396=VERTEX_POINT('',#395) ;
#441=VERTEX_POINT('',#440) ;
#443=VERTEX_POINT('',#442) ;
#27=COLOUR_RGB('Colour',0.823529411765,0.823529411765,1.) ;
#26=MANIFOLD_SOLID_BREP('Corps principal',#35) ;
#25=SHAPE_DEFINITION_REPRESENTATION(#15,#24) ;
#9=PRODUCT_CATEGORY_RELATIONSHIP(' ',' ',#7,#8) ;
#18=PLANE_ANGLE_MEASURE_WITH_UNIT(PLANE_ANGLE_MEASURE(0.0174532925199),#17) ;
#4=APPLICATION_PROTOCOL_DEFINITION('draft international standard','configuration_control_3d_design_ed2_mim',2004,#1) ;
#69=EDGE_LOOP('',(#70,#71,#72,#73)) ;
#86=EDGE_LOOP('',(#87,#88,#89,#90)) ;
#117=EDGE_LOOP('',(#118,#119,#120,#121)) ;
#134=EDGE_LOOP('',(#135,#136,#137,#138)) ;
#146=EDGE_LOOP('',(#147,#148)) ;
#164=EDGE_LOOP('',(#165,#166)) ;
#193=EDGE_LOOP('',(#194,#195,#196,#197)) ;
#210=EDGE_LOOP('',(#211,#212,#213,#214)) ;
#236=EDGE_LOOP('',(#237,#238)) ;
#240=EDGE_LOOP('',(#241,#242)) ;
#269=EDGE_LOOP('',(#270,#271,#272,#273)) ;
#286=EDGE_LOOP('',(#287,#288,#289,#290)) ;
#317=EDGE_LOOP('',(#318,#319,#320,#321)) ;
#329=EDGE_LOOP('',(#330,#331,#332,#333)) ;
#360=EDGE_LOOP('',(#361,#362,#363,#364)) ;
#377=EDGE_LOOP('',(#378,#379,#380,#381)) ;
#408=EDGE_LOOP('',(#409,#410,#411,#412)) ;
#420=EDGE_LOOP('',(#421,#422,#423,#424)) ;
#432=EDGE_LOOP('',(#433,#434)) ;
#450=EDGE_LOOP('',(#451,#452)) ;
#470=EDGE_LOOP('',(#471,#472,#473,#474)) ;
#482=EDGE_LOOP('',(#483,#484,#485,#486)) ;
#74=FACE_OUTER_BOUND('',#69,.T.) ;
#91=FACE_OUTER_BOUND('',#86,.T.) ;
#122=FACE_OUTER_BOUND('',#117,.T.) ;
#139=FACE_OUTER_BOUND('',#134,.T.) ;
#149=FACE_OUTER_BOUND('',#146,.T.) ;
#198=FACE_OUTER_BOUND('',#193,.T.) ;
#215=FACE_OUTER_BOUND('',#210,.T.) ;
#239=FACE_OUTER_BOUND('',#236,.T.) ;
#274=FACE_OUTER_BOUND('',#269,.T.) ;
#291=FACE_OUTER_BOUND('',#286,.T.) ;
#322=FACE_OUTER_BOUND('',#317,.T.) ;
#334=FACE_OUTER_BOUND('',#329,.T.) ;
#365=FACE_OUTER_BOUND('',#360,.T.) ;
#382=FACE_OUTER_BOUND('',#377,.T.) ;
#413=FACE_OUTER_BOUND('',#408,.T.) ;
#425=FACE_OUTER_BOUND('',#420,.T.) ;
#435=FACE_OUTER_BOUND('',#432,.T.) ;
#475=FACE_OUTER_BOUND('',#470,.T.) ;
#487=FACE_OUTER_BOUND('',#482,.T.) ;
#16=(LENGTH_UNIT()NAMED_UNIT(*)SI_UNIT(.MILLI.,.METRE.)) ;
#17=(NAMED_UNIT(*)PLANE_ANGLE_UNIT()SI_UNIT($,.RADIAN.)) ;
#19=(NAMED_UNIT(*)SI_UNIT($,.STERADIAN.)SOLID_ANGLE_UNIT()) ;
#21=(GEOMETRIC_REPRESENTATION_CONTEXT(3)GLOBAL_UNCERTAINTY_ASSIGNED_CONTEXT((#20))GLOBAL_UNIT_ASSIGNED_CONTEXT((#16,#17,#19))REPRESENTATION_CONTEXT(' ',' ')) ;
ENDSEC;
END-ISO-10303-21;
