ISO-10303-21;
HEADER;
FILE_DESCRIPTION (( 'STEP AP214' ),
    '1' );
FILE_NAME ('Rondelle M12 2.STEP',
    '2023-09-14T12:51:24',
    ( '' ),
    ( '' ),
    'SwSTEP 2.0',
    'SolidWorks 2023',
    '' );
FILE_SCHEMA (( 'AUTOMOTIVE_DESIGN' ));
ENDSEC;

DATA;
#1 = VERTEX_POINT ( 'NONE', #341 ) ;
#2 = CARTESIAN_POINT ( 'NONE',  ( 6.450000000000000178, 0.000000000000000000, 0.1999999999999987899 ) ) ;
#3 = ADVANCED_FACE ( 'NONE', ( #136 ), #373, .F. ) ;
#4 = CARTESIAN_POINT ( 'NONE',  ( -11.80000000000000071, 1.445083222993876839E-15, 2.299999999999999822 ) ) ;
#5 = DIRECTION ( 'NONE',  ( -1.000000000000000000, 1.224646799147353207E-16, 0.000000000000000000 ) ) ;
#6 = COLOUR_RGB ( '',0.7921568627450980005, 0.8196078431372548767, 0.9333333333333333481 ) ;
#7 = DIRECTION ( 'NONE',  ( 0.000000000000000000, 0.000000000000000000, 1.000000000000000000 ) ) ;
#8 = FACE_OUTER_BOUND ( 'NONE', #253, .T. ) ;
#9 = DIRECTION ( 'NONE',  ( -0.000000000000000000, -0.000000000000000000, -1.000000000000000000 ) ) ;
#10 = ORIENTED_EDGE ( 'NONE', *, *, #69, .F. ) ;
#11 = CIRCLE ( 'NONE', #248, 6.450000000000000178 ) ;
#12 = DIRECTION ( 'NONE',  ( 1.000000000000000000, 0.000000000000000000, 0.000000000000000000 ) ) ;
#13 = EDGE_CURVE ( 'NONE', #217, #331, #254, .T. ) ;
#14 = DIRECTION ( 'NONE',  ( 1.000000000000000000, 0.000000000000000000, 0.000000000000000000 ) ) ;
#15 = ORIENTED_EDGE ( 'NONE', *, *, #81, .T. ) ;
#16 = FACE_OUTER_BOUND ( 'NONE', #44, .T. ) ;
#17 = EDGE_LOOP ( 'NONE', ( #368, #159 ) ) ;
#18 = AXIS2_PLACEMENT_3D ( 'NONE', #38, #268, #198 ) ;
#19 = DIRECTION ( 'NONE',  ( -0.000000000000000000, -0.000000000000000000, -1.000000000000000000 ) ) ;
#20 = ORIENTED_EDGE ( 'NONE', *, *, #140, .F. ) ;
#21 = EDGE_CURVE ( 'NONE', #289, #62, #11, .T. ) ;
#22 = FACE_OUTER_BOUND ( 'NONE', #328, .T. ) ;
#23 = PLANE ( 'NONE',  #93 ) ;
#24 = VERTEX_POINT ( 'NONE', #191 ) ;
#25 = CYLINDRICAL_SURFACE ( 'NONE', #48, 12.00000000000000178 ) ;
#26 = FACE_OUTER_BOUND ( 'NONE', #168, .T. ) ;
#27 = AXIS2_PLACEMENT_3D ( 'NONE', #372, #101, #197 ) ;
#28 = CIRCLE ( 'NONE', #34, 6.250000000000000000 ) ;
#29 = VERTEX_POINT ( 'NONE', #285 ) ;
#30 = CARTESIAN_POINT ( 'NONE',  ( 0.000000000000000000, 0.000000000000000000, 2.299999999999999822 ) ) ;
#31 = CARTESIAN_POINT ( 'NONE',  ( -6.250000000000000000, 0.000000000000000000, 0.1999999999999987899 ) ) ;
#32 = AXIS2_PLACEMENT_3D ( 'NONE', #259, #130, #374 ) ;
#33 = ADVANCED_FACE ( 'NONE', ( #99 ), #385, .T. ) ;
#34 = AXIS2_PLACEMENT_3D ( 'NONE', #334, #9, #53 ) ;
#35 = DIRECTION ( 'NONE',  ( -0.000000000000000000, -0.000000000000000000, -1.000000000000000000 ) ) ;
#36 = CARTESIAN_POINT ( 'NONE',  ( 0.000000000000000000, 0.000000000000000000, 2.499999999999998668 ) ) ;
#37 = PRODUCT_DEFINITION_CONTEXT ( 'detailed design', #114, 'design' ) ;
#38 = CARTESIAN_POINT ( 'NONE',  ( 0.000000000000000000, 0.000000000000000000, 0.1999999999999987899 ) ) ;
#39 = AXIS2_PLACEMENT_3D ( 'NONE', #90, #61, #401 ) ;
#40 = CIRCLE ( 'NONE', #56, 0.2000000000000005107 ) ;
#41 = FACE_OUTER_BOUND ( 'NONE', #82, .T. ) ;
#42 = ADVANCED_FACE ( 'NONE', ( #22 ), #260, .T. ) ;
#43 = CARTESIAN_POINT ( 'NONE',  ( 6.450000000000000178, 0.000000000000000000, -6.098637220230962441E-16 ) ) ;
#44 = EDGE_LOOP ( 'NONE', ( #226, #219, #133, #363 ) ) ;
#45 = LINE ( 'NONE', #329, #338 ) ;
#46 = ORIENTED_EDGE ( 'NONE', *, *, #54, .F. ) ;
#47 = EDGE_CURVE ( 'NONE', #120, #62, #354, .T. ) ;
#48 = AXIS2_PLACEMENT_3D ( 'NONE', #286, #313, #161 ) ;
#49 = CARTESIAN_POINT ( 'NONE',  ( 11.80000000000000071, 0.000000000000000000, 0.000000000000000000 ) ) ;
#50 = ORIENTED_EDGE ( 'NONE', *, *, #47, .F. ) ;
#51 = SURFACE_STYLE_USAGE ( .BOTH. , #119 ) ;
#52 = EDGE_LOOP ( 'NONE', ( #154, #398, #208, #46 ) ) ;
#53 = DIRECTION ( 'NONE',  ( 1.000000000000000000, 0.000000000000000000, 0.000000000000000000 ) ) ;
#54 = EDGE_CURVE ( 'NONE', #212, #358, #109, .T. ) ;
#55 = ORIENTED_EDGE ( 'NONE', *, *, #124, .F. ) ;
#56 = AXIS2_PLACEMENT_3D ( 'NONE', #4, #172, #5 ) ;
#57 = PRODUCT_DEFINITION_FORMATION_WITH_SPECIFIED_SOURCE ( 'SymÃ©triqu', '', #183, .NOT_KNOWN. ) ;
#58 = CARTESIAN_POINT ( 'NONE',  ( 0.000000000000000000, 0.000000000000000000, 0.000000000000000000 ) ) ;
#59 = CARTESIAN_POINT ( 'NONE',  ( 0.000000000000000000, 0.000000000000000000, 0.000000000000000000 ) ) ;
#60 = PRODUCT_DEFINITION_SHAPE ( 'NONE', 'NONE',  #234 ) ;
#61 = DIRECTION ( 'NONE',  ( -0.000000000000000000, -0.000000000000000000, -1.000000000000000000 ) ) ;
#62 = VERTEX_POINT ( 'NONE', #312 ) ;
#63 = ADVANCED_FACE ( 'NONE', ( #26 ), #330, .T. ) ;
#64 = CARTESIAN_POINT ( 'NONE',  ( -11.80000000000000071, 1.457329690985350393E-15, 2.499999999999998668 ) ) ;
#65 = ORIENTED_EDGE ( 'NONE', *, *, #184, .T. ) ;
#66 = FACE_OUTER_BOUND ( 'NONE', #178, .T. ) ;
#67 = DIRECTION ( 'NONE',  ( 1.000000000000000000, 0.000000000000000000, 0.000000000000000000 ) ) ;
#68 = DIRECTION ( 'NONE',  ( -0.000000000000000000, -0.000000000000000000, -1.000000000000000000 ) ) ;
#69 = EDGE_CURVE ( 'NONE', #24, #358, #394, .T. ) ;
#70 = DIRECTION ( 'NONE',  ( 1.000000000000000000, 0.000000000000000000, 0.000000000000000000 ) ) ;
#71 = AXIS2_PLACEMENT_3D ( 'NONE', #320, #68, #207 ) ;
#72 = CIRCLE ( 'NONE', #296, 6.250000000000000000 ) ;
#73 = CARTESIAN_POINT ( 'NONE',  ( 0.000000000000000000, 0.000000000000000000, 0.1999999999999987899 ) ) ;
#74 = DIRECTION ( 'NONE',  ( 0.000000000000000000, 0.000000000000000000, 1.000000000000000000 ) ) ;
#75 = DIRECTION ( 'NONE',  ( 1.000000000000000000, 0.000000000000000000, 0.000000000000000000 ) ) ;
#76 = AXIS2_PLACEMENT_3D ( 'NONE', #337, #314, #256 ) ;
#77 = DIRECTION ( 'NONE',  ( 0.000000000000000000, 0.000000000000000000, -1.000000000000000000 ) ) ;
#78 = VERTEX_POINT ( 'NONE', #106 ) ;
#79 =( LENGTH_UNIT ( ) NAMED_UNIT ( * ) SI_UNIT ( .MILLI., .METRE. ) );
#80 = ORIENTED_EDGE ( 'NONE', *, *, #399, .F. ) ;
#81 = EDGE_CURVE ( 'NONE', #331, #1, #382, .T. ) ;
#82 = EDGE_LOOP ( 'NONE', ( #406, #195, #150, #303 ) ) ;
#83 = CIRCLE ( 'NONE', #318, 11.80000000000000071 ) ;
#84 = CIRCLE ( 'NONE', #102, 11.80000000000000071 ) ;
#85 = DIRECTION ( 'NONE',  ( 1.000000000000000000, 0.000000000000000000, 0.000000000000000000 ) ) ;
#86 = ORIENTED_EDGE ( 'NONE', *, *, #116, .F. ) ;
#87 = FILL_AREA_STYLE ('',( #147 ) ) ;
#88 = ORIENTED_EDGE ( 'NONE', *, *, #112, .T. ) ;
#89 = DIRECTION ( 'NONE',  ( 0.000000000000000000, 0.000000000000000000, 1.000000000000000000 ) ) ;
#90 = CARTESIAN_POINT ( 'NONE',  ( 0.000000000000000000, 0.000000000000000000, 2.499999999999998668 ) ) ;
#91 = TOROIDAL_SURFACE ( 'NONE', #380, 6.450000000000000178, 0.2000000000000000111 ) ;
#92 = APPLICATION_PROTOCOL_DEFINITION ( 'draft international standard', 'automotive_design', 1998, #114 ) ;
#93 = AXIS2_PLACEMENT_3D ( 'NONE', #59, #371, #400 ) ;
#94 = ORIENTED_EDGE ( 'NONE', *, *, #171, .T. ) ;
#95 = CARTESIAN_POINT ( 'NONE',  ( 0.000000000000000000, 0.000000000000000000, 0.000000000000000000 ) ) ;
#96 = DIRECTION ( 'NONE',  ( 0.000000000000000000, 0.000000000000000000, -1.000000000000000000 ) ) ;
#97 = ADVANCED_FACE ( 'NONE', ( #8 ), #141, .T. ) ;
#98 = APPLICATION_PROTOCOL_DEFINITION ( 'draft international standard', 'automotive_design', 1998, #298 ) ;
#99 = FACE_OUTER_BOUND ( 'NONE', #152, .T. ) ;
#100 = CIRCLE ( 'NONE', #362, 11.80000000000000071 ) ;
#101 = DIRECTION ( 'NONE',  ( 1.224646799147353207E-16, 1.000000000000000000, -0.000000000000000000 ) ) ;
#102 = AXIS2_PLACEMENT_3D ( 'NONE', #196, #132, #342 ) ;
#103 = CIRCLE ( 'NONE', #396, 0.2000000000000000944 ) ;
#104 = ADVANCED_FACE ( 'NONE', ( #262, #233 ), #351, .T. ) ;
#105 = CARTESIAN_POINT ( 'NONE',  ( 0.000000000000000000, 0.000000000000000000, 2.499999999999998668 ) ) ;
#106 = CARTESIAN_POINT ( 'NONE',  ( 12.00000000000000178, 1.469576158976824144E-15, 2.299999999999999822 ) ) ;
#107 = DIRECTION ( 'NONE',  ( 0.000000000000000000, 0.000000000000000000, 1.000000000000000000 ) ) ;
#108 = ADVANCED_BREP_SHAPE_REPRESENTATION ( 'Rondelle M12 2', ( #206, #169 ), #319 ) ;
#109 = CIRCLE ( 'NONE', #163, 0.2000000000000000111 ) ;
#110 = CIRCLE ( 'NONE', #230, 0.1999999999999996503 ) ;
#111 = DIRECTION ( 'NONE',  ( -0.000000000000000000, -0.000000000000000000, -1.000000000000000000 ) ) ;
#112 = EDGE_CURVE ( 'NONE', #217, #120, #291, .T. ) ;
#113 = DIRECTION ( 'NONE',  ( -0.000000000000000000, -0.000000000000000000, -1.000000000000000000 ) ) ;
#114 = APPLICATION_CONTEXT ( 'automotive_design' ) ;
#115 = CIRCLE ( 'NONE', #165, 12.00000000000000178 ) ;
#116 = EDGE_CURVE ( 'NONE', #78, #358, #379, .T. ) ;
#117 = DIRECTION ( 'NONE',  ( 0.000000000000000000, -1.000000000000000000, 0.000000000000000000 ) ) ;
#118 = VERTEX_POINT ( 'NONE', #137 ) ;
#119 = SURFACE_SIDE_STYLE ('',( #177 ) ) ;
#120 = VERTEX_POINT ( 'NONE', #31 ) ;
#121 = DIRECTION ( 'NONE',  ( -0.000000000000000000, -0.000000000000000000, -1.000000000000000000 ) ) ;
#122 = ORIENTED_EDGE ( 'NONE', *, *, #326, .T. ) ;
#123 = DIRECTION ( 'NONE',  ( 0.000000000000000000, 0.000000000000000000, 1.000000000000000000 ) ) ;
#124 = EDGE_CURVE ( 'NONE', #343, #182, #241, .T. ) ;
#125 =( NAMED_UNIT ( * ) SI_UNIT ( $, .STERADIAN. ) SOLID_ANGLE_UNIT ( ) );
#126 = ORIENTED_EDGE ( 'NONE', *, *, #365, .T. ) ;
#127 = VECTOR ( 'NONE', #113, 1000.000000000000000 ) ;
#128 = CARTESIAN_POINT ( 'NONE',  ( 12.00000000000000178, 1.469576158976824144E-15, 0.1999999999999987899 ) ) ;
#129 = EDGE_CURVE ( 'NONE', #367, #343, #40, .T. ) ;
#130 = DIRECTION ( 'NONE',  ( 0.000000000000000000, 0.000000000000000000, 1.000000000000000000 ) ) ;
#131 = ORIENTED_EDGE ( 'NONE', *, *, #134, .T. ) ;
#132 = DIRECTION ( 'NONE',  ( 0.000000000000000000, 0.000000000000000000, 1.000000000000000000 ) ) ;
#133 = ORIENTED_EDGE ( 'NONE', *, *, #339, .T. ) ;
#134 = EDGE_CURVE ( 'NONE', #1, #120, #323, .T. ) ;
#135 = AXIS2_PLACEMENT_3D ( 'NONE', #231, #347, #67 ) ;
#136 = FACE_OUTER_BOUND ( 'NONE', #284, .T. ) ;
#137 = CARTESIAN_POINT ( 'NONE',  ( 6.450000000000000178, 0.000000000000000000, 2.499999999999999556 ) ) ;
#138 = DIRECTION ( 'NONE',  ( 1.000000000000000000, 0.000000000000000000, 0.000000000000000000 ) ) ;
#139 = CARTESIAN_POINT ( 'NONE',  ( 0.000000000000000000, 0.000000000000000000, 0.1999999999999987899 ) ) ;
#140 = EDGE_CURVE ( 'NONE', #62, #289, #271, .T. ) ;
#141 = TOROIDAL_SURFACE ( 'NONE', #229, 6.450000000000000178, 0.2000000000000000111 ) ;
#142 = TOROIDAL_SURFACE ( 'NONE', #261, 6.450000000000000178, 0.2000000000000000111 ) ;
#143 = UNCERTAINTY_MEASURE_WITH_UNIT (LENGTH_MEASURE( 1.000000000000000082E-05 ), #79, 'distance_accuracy_value', 'NONE');
#144 = DIRECTION ( 'NONE',  ( 1.000000000000000000, 0.000000000000000000, 0.000000000000000000 ) ) ;
#145 = FACE_OUTER_BOUND ( 'NONE', #52, .T. ) ;
#146 = ADVANCED_FACE ( 'NONE', ( #41 ), #91, .T. ) ;
#147 = FILL_AREA_STYLE_COLOUR ( '', #6 ) ;
#148 = AXIS2_PLACEMENT_3D ( 'NONE', #36, #322, #324 ) ;
#149 = AXIS2_PLACEMENT_3D ( 'NONE', #164, #19, #405 ) ;
#150 = ORIENTED_EDGE ( 'NONE', *, *, #21, .F. ) ;
#151 = DIRECTION ( 'NONE',  ( 1.000000000000000000, 0.000000000000000000, 0.000000000000000000 ) ) ;
#152 = EDGE_LOOP ( 'NONE', ( #333, #224, #305, #10 ) ) ;
#153 = CARTESIAN_POINT ( 'NONE',  ( 0.000000000000000000, 0.000000000000000000, 2.299999999999999822 ) ) ;
#154 = ORIENTED_EDGE ( 'NONE', *, *, #160, .F. ) ;
#155 = CIRCLE ( 'NONE', #148, 6.450000000000000178 ) ;
#156 = CARTESIAN_POINT ( 'NONE',  ( -6.450000000000000178, 7.898971854500428692E-16, 2.499999999999999556 ) ) ;
#157 = ORIENTED_EDGE ( 'NONE', *, *, #251, .F. ) ;
#158 = DIRECTION ( 'NONE',  ( 0.000000000000000000, 0.000000000000000000, -1.000000000000000000 ) ) ;
#159 = ORIENTED_EDGE ( 'NONE', *, *, #140, .T. ) ;
#160 = EDGE_CURVE ( 'NONE', #29, #212, #100, .T. ) ;
#161 = DIRECTION ( 'NONE',  ( -1.000000000000000000, 0.000000000000000000, 0.000000000000000000 ) ) ;
#162 = ORIENTED_EDGE ( 'NONE', *, *, #365, .F. ) ;
#163 = AXIS2_PLACEMENT_3D ( 'NONE', #309, #315, #96 ) ;
#164 = CARTESIAN_POINT ( 'NONE',  ( 0.000000000000000000, 0.000000000000000000, 2.299999999999999822 ) ) ;
#165 = AXIS2_PLACEMENT_3D ( 'NONE', #389, #270, #85 ) ;
#166 = CARTESIAN_POINT ( 'NONE',  ( 0.000000000000000000, 0.000000000000000000, 0.1999999999999987899 ) ) ;
#167 = DIRECTION ( 'NONE',  ( 0.000000000000000000, 0.000000000000000000, 1.000000000000000000 ) ) ;
#168 = EDGE_LOOP ( 'NONE', ( #228, #288, #395, #55 ) ) ;
#169 = AXIS2_PLACEMENT_3D ( 'NONE', #95, #89, #340 ) ;
#170 = CARTESIAN_POINT ( 'NONE',  ( -6.250000000000000000, 0.000000000000000000, 2.499999999999998668 ) ) ;
#171 = EDGE_CURVE ( 'NONE', #358, #24, #280, .T. ) ;
#172 = DIRECTION ( 'NONE',  ( 1.224646799147353207E-16, 1.000000000000000000, -0.000000000000000000 ) ) ;
#173 = CARTESIAN_POINT ( 'NONE',  ( 6.250000000000000000, 7.654042494670957606E-16, 2.499999999999998668 ) ) ;
#174 = CIRCLE ( 'NONE', #273, 6.450000000000000178 ) ;
#175 = DIRECTION ( 'NONE',  ( 0.000000000000000000, 0.000000000000000000, 1.000000000000000000 ) ) ;
#176 = EDGE_CURVE ( 'NONE', #1, #289, #194, .T. ) ;
#177 = SURFACE_STYLE_FILL_AREA ( #87 ) ;
#178 = EDGE_LOOP ( 'NONE', ( #86, #257, #221, #247 ) ) ;
#179 = CARTESIAN_POINT ( 'NONE',  ( -6.450000000000000178, 7.898971854500428692E-16, 2.299999999999999822 ) ) ;
#180 = ORIENTED_EDGE ( 'NONE', *, *, #192, .T. ) ;
#181 = AXIS2_PLACEMENT_3D ( 'NONE', #166, #74, #292 ) ;
#182 = VERTEX_POINT ( 'NONE', #202 ) ;
#183 = PRODUCT ( 'Rondelle M12 2', 'Rondelle M12 2', '', ( #258 ) ) ;
#184 = EDGE_CURVE ( 'NONE', #212, #29, #83, .T. ) ;
#185 = DIRECTION ( 'NONE',  ( 0.000000000000000000, 0.000000000000000000, 1.000000000000000000 ) ) ;
#186 = ORIENTED_EDGE ( 'NONE', *, *, #160, .T. ) ;
#187 =( NAMED_UNIT ( * ) PLANE_ANGLE_UNIT ( ) SI_UNIT ( $, .RADIAN. ) );
#188 = EDGE_LOOP ( 'NONE', ( #180, #245 ) ) ;
#189 = AXIS2_PLACEMENT_3D ( 'NONE', #30, #107, #297 ) ;
#190 = CARTESIAN_POINT ( 'NONE',  ( -12.00000000000000178, 0.000000000000000000, 2.299999999999999822 ) ) ;
#191 = CARTESIAN_POINT ( 'NONE',  ( -12.00000000000000178, 0.000000000000000000, 0.1999999999999987899 ) ) ;
#192 = EDGE_CURVE ( 'NONE', #118, #403, #155, .T. ) ;
#193 = FACE_BOUND ( 'NONE', #17, .T. ) ;
#194 = CIRCLE ( 'NONE', #294, 0.2000000000000000111 ) ;
#195 = ORIENTED_EDGE ( 'NONE', *, *, #47, .T. ) ;
#196 = CARTESIAN_POINT ( 'NONE',  ( 0.000000000000000000, 0.000000000000000000, 2.499999999999998668 ) ) ;
#197 = DIRECTION ( 'NONE',  ( -1.000000000000000000, 1.224646799147353454E-16, 0.000000000000000000 ) ) ;
#198 = DIRECTION ( 'NONE',  ( 1.000000000000000000, 0.000000000000000000, 0.000000000000000000 ) ) ;
#199 = PRESENTATION_LAYER_ASSIGNMENT (  '', '', ( #213 ) ) ;
#200 = CYLINDRICAL_SURFACE ( 'NONE', #71, 12.00000000000000178 ) ;
#201 = ADVANCED_FACE ( 'NONE', ( #353 ), #200, .T. ) ;
#202 = CARTESIAN_POINT ( 'NONE',  ( 11.80000000000000071, 0.000000000000000000, 2.499999999999998668 ) ) ;
#203 = UNCERTAINTY_MEASURE_WITH_UNIT (LENGTH_MEASURE( 1.000000000000000082E-05 ), #225, 'distance_accuracy_value', 'NONE');
#204 = DIRECTION ( 'NONE',  ( 0.000000000000000000, 0.000000000000000000, 1.000000000000000000 ) ) ;
#205 = DIRECTION ( 'NONE',  ( 0.000000000000000000, 0.000000000000000000, 1.000000000000000000 ) ) ;
#206 = MANIFOLD_SOLID_BREP ( 'Congé1', #308 ) ;
#207 = DIRECTION ( 'NONE',  ( -1.000000000000000000, 0.000000000000000000, 0.000000000000000000 ) ) ;
#208 = ORIENTED_EDGE ( 'NONE', *, *, #171, .F. ) ;
#209 = DIRECTION ( 'NONE',  ( 0.000000000000000000, 0.000000000000000000, 1.000000000000000000 ) ) ;
#210 = EDGE_LOOP ( 'NONE', ( #335, #15, #131, #282 ) ) ;
#211 = CARTESIAN_POINT ( 'NONE',  ( 0.000000000000000000, 0.000000000000000000, 2.299999999999999822 ) ) ;
#212 = VERTEX_POINT ( 'NONE', #49 ) ;
#213 = STYLED_ITEM ( 'NONE', ( #244 ), #206 ) ;
#214 = EDGE_CURVE ( 'NONE', #403, #118, #174, .T. ) ;
#215 = CIRCLE ( 'NONE', #404, 0.2000000000000005107 ) ;
#216 = CARTESIAN_POINT ( 'NONE',  ( -11.80000000000000071, 1.445083222993876839E-15, 0.1999999999999987899 ) ) ;
#217 = VERTEX_POINT ( 'NONE', #359 ) ;
#218 =( NAMED_UNIT ( * ) SI_UNIT ( $, .STERADIAN. ) SOLID_ANGLE_UNIT ( ) );
#219 = ORIENTED_EDGE ( 'NONE', *, *, #192, .F. ) ;
#220 = EDGE_CURVE ( 'NONE', #78, #367, #115, .T. ) ;
#221 = ORIENTED_EDGE ( 'NONE', *, *, #251, .T. ) ;
#222 = VECTOR ( 'NONE', #237, 1000.000000000000000 ) ;
#223 = AXIS2_PLACEMENT_3D ( 'NONE', #153, #393, #12 ) ;
#224 = ORIENTED_EDGE ( 'NONE', *, *, #184, .F. ) ;
#225 =( LENGTH_UNIT ( ) NAMED_UNIT ( * ) SI_UNIT ( .MILLI., .METRE. ) );
#226 = ORIENTED_EDGE ( 'NONE', *, *, #300, .F. ) ;
#227 = SHAPE_DEFINITION_REPRESENTATION ( #60, #108 ) ;
#228 = ORIENTED_EDGE ( 'NONE', *, *, #129, .F. ) ;
#229 = AXIS2_PLACEMENT_3D ( 'NONE', #139, #205, #236 ) ;
#230 = AXIS2_PLACEMENT_3D ( 'NONE', #179, #332, #249 ) ;
#231 = CARTESIAN_POINT ( 'NONE',  ( 0.000000000000000000, 0.000000000000000000, 2.299999999999999822 ) ) ;
#232 = DIRECTION ( 'NONE',  ( 1.000000000000000000, 0.000000000000000000, 0.000000000000000000 ) ) ;
#233 = FACE_OUTER_BOUND ( 'NONE', #369, .T. ) ;
#234 = PRODUCT_DEFINITION ( 'GÃ©nÃ©r', '', #57, #37 ) ;
#235 = VECTOR ( 'NONE', #383, 1000.000000000000000 ) ;
#236 = DIRECTION ( 'NONE',  ( 1.000000000000000000, 0.000000000000000000, 0.000000000000000000 ) ) ;
#237 = DIRECTION ( 'NONE',  ( -0.000000000000000000, -0.000000000000000000, -1.000000000000000000 ) ) ;
#238 = CARTESIAN_POINT ( 'NONE',  ( 0.000000000000000000, 0.000000000000000000, 0.1999999999999987899 ) ) ;
#239 = ADVANCED_FACE ( 'NONE', ( #16 ), #142, .T. ) ;
#240 = DIRECTION ( 'NONE',  ( -1.000000000000000000, 1.224646799147353207E-16, 0.000000000000000000 ) ) ;
#241 = CIRCLE ( 'NONE', #266, 11.80000000000000071 ) ;
#242 = FACE_OUTER_BOUND ( 'NONE', #325, .T. ) ;
#243 = ORIENTED_EDGE ( 'NONE', *, *, #124, .T. ) ;
#244 = PRESENTATION_STYLE_ASSIGNMENT (( #51 ) ) ;
#245 = ORIENTED_EDGE ( 'NONE', *, *, #214, .T. ) ;
#246 = CARTESIAN_POINT ( 'NONE',  ( 0.000000000000000000, 0.000000000000000000, 2.499999999999998668 ) ) ;
#247 = ORIENTED_EDGE ( 'NONE', *, *, #69, .T. ) ;
#248 = AXIS2_PLACEMENT_3D ( 'NONE', #58, #167, #287 ) ;
#249 = DIRECTION ( 'NONE',  ( -1.000000000000000000, 1.224646799147353454E-16, 0.000000000000000000 ) ) ;
#250 = ORIENTED_EDGE ( 'NONE', *, *, #399, .T. ) ;
#251 = EDGE_CURVE ( 'NONE', #367, #24, #45, .T. ) ;
#252 = ORIENTED_EDGE ( 'NONE', *, *, #321, .T. ) ;
#253 = EDGE_LOOP ( 'NONE', ( #50, #388, #299, #20 ) ) ;
#254 = CIRCLE ( 'NONE', #76, 6.250000000000000000 ) ;
#255 = DIRECTION ( 'NONE',  ( -0.000000000000000000, -0.000000000000000000, -1.000000000000000000 ) ) ;
#256 = DIRECTION ( 'NONE',  ( 1.000000000000000000, 0.000000000000000000, 0.000000000000000000 ) ) ;
#257 = ORIENTED_EDGE ( 'NONE', *, *, #220, .T. ) ;
#258 = PRODUCT_CONTEXT ( 'NONE', #298, 'mechanical' ) ;
#259 = CARTESIAN_POINT ( 'NONE',  ( 0.000000000000000000, 0.000000000000000000, 0.1999999999999987899 ) ) ;
#260 = TOROIDAL_SURFACE ( 'NONE', #135, 11.80000000000000071, 0.2000000000000000111 ) ;
#261 = AXIS2_PLACEMENT_3D ( 'NONE', #211, #185, #14 ) ;
#262 = FACE_BOUND ( 'NONE', #188, .T. ) ;
#263 = EDGE_CURVE ( 'NONE', #78, #182, #364, .T. ) ;
#264 = DIRECTION ( 'NONE',  ( 0.000000000000000000, 0.000000000000000000, -1.000000000000000000 ) ) ;
#265 = DIRECTION ( 'NONE',  ( 1.000000000000000000, 0.000000000000000000, 0.000000000000000000 ) ) ;
#266 = AXIS2_PLACEMENT_3D ( 'NONE', #105, #204, #144 ) ;
#267 = DIRECTION ( 'NONE',  ( 0.000000000000000000, 0.000000000000000000, 1.000000000000000000 ) ) ;
#268 = DIRECTION ( 'NONE',  ( 0.000000000000000000, 0.000000000000000000, 1.000000000000000000 ) ) ;
#269 = CARTESIAN_POINT ( 'NONE',  ( 0.000000000000000000, 0.000000000000000000, 2.299999999999999822 ) ) ;
#270 = DIRECTION ( 'NONE',  ( -0.000000000000000000, -0.000000000000000000, -1.000000000000000000 ) ) ;
#271 = CIRCLE ( 'NONE', #278, 6.450000000000000178 ) ;
#272 = ORIENTED_EDGE ( 'NONE', *, *, #129, .T. ) ;
#273 = AXIS2_PLACEMENT_3D ( 'NONE', #246, #121, #361 ) ;
#274 = ADVANCED_FACE ( 'NONE', ( #145 ), #386, .T. ) ;
#275 = EDGE_LOOP ( 'NONE', ( #126, #307, #94, #157 ) ) ;
#276 = ORIENTED_EDGE ( 'NONE', *, *, #300, .T. ) ;
#277 = CARTESIAN_POINT ( 'NONE',  ( 0.000000000000000000, 0.000000000000000000, 0.1999999999999987899 ) ) ;
#278 = AXIS2_PLACEMENT_3D ( 'NONE', #377, #175, #265 ) ;
#279 = PRODUCT_RELATED_PRODUCT_CATEGORY ( 'part', '', ( #183 ) ) ;
#280 = CIRCLE ( 'NONE', #18, 12.00000000000000178 ) ;
#281 = CIRCLE ( 'NONE', #149, 12.00000000000000178 ) ;
#282 = ORIENTED_EDGE ( 'NONE', *, *, #112, .F. ) ;
#283 = CYLINDRICAL_SURFACE ( 'NONE', #370, 6.250000000000000000 ) ;
#284 = EDGE_LOOP ( 'NONE', ( #310, #252, #88, #122 ) ) ;
#285 = CARTESIAN_POINT ( 'NONE',  ( -11.80000000000000071, 1.457329690985350393E-15, 0.000000000000000000 ) ) ;
#286 = CARTESIAN_POINT ( 'NONE',  ( 0.000000000000000000, 0.000000000000000000, 2.499999999999998668 ) ) ;
#287 = DIRECTION ( 'NONE',  ( 1.000000000000000000, 0.000000000000000000, 0.000000000000000000 ) ) ;
#288 = ORIENTED_EDGE ( 'NONE', *, *, #220, .F. ) ;
#289 = VERTEX_POINT ( 'NONE', #43 ) ;
#290 = EDGE_CURVE ( 'NONE', #29, #24, #215, .T. ) ;
#291 = LINE ( 'NONE', #170, #222 ) ;
#292 = DIRECTION ( 'NONE',  ( 1.000000000000000000, 0.000000000000000000, 0.000000000000000000 ) ) ;
#293 = CARTESIAN_POINT ( 'NONE',  ( 0.000000000000000000, 0.000000000000000000, 2.499999999999998668 ) ) ;
#294 = AXIS2_PLACEMENT_3D ( 'NONE', #2, #352, #264 ) ;
#295 = CARTESIAN_POINT ( 'NONE',  ( 12.00000000000000178, 1.469576158976824144E-15, 2.499999999999998668 ) ) ;
#296 = AXIS2_PLACEMENT_3D ( 'NONE', #269, #123, #366 ) ;
#297 = DIRECTION ( 'NONE',  ( 1.000000000000000000, 0.000000000000000000, 0.000000000000000000 ) ) ;
#298 = APPLICATION_CONTEXT ( 'automotive_design' ) ;
#299 = ORIENTED_EDGE ( 'NONE', *, *, #176, .T. ) ;
#300 = EDGE_CURVE ( 'NONE', #403, #217, #110, .T. ) ;
#301 = DIRECTION ( 'NONE',  ( 0.000000000000000000, -1.000000000000000000, 0.000000000000000000 ) ) ;
#302 = MECHANICAL_DESIGN_GEOMETRIC_PRESENTATION_REPRESENTATION (  '', ( #213 ), #344 ) ;
#303 = ORIENTED_EDGE ( 'NONE', *, *, #176, .F. ) ;
#304 = TOROIDAL_SURFACE ( 'NONE', #223, 6.450000000000000178, 0.2000000000000000111 ) ;
#305 = ORIENTED_EDGE ( 'NONE', *, *, #54, .T. ) ;
#306 = ORIENTED_EDGE ( 'NONE', *, *, #214, .F. ) ;
#307 = ORIENTED_EDGE ( 'NONE', *, *, #116, .T. ) ;
#308 = CLOSED_SHELL ( 'NONE', ( #42, #274, #316, #146, #392, #201, #104, #345, #355, #3, #97, #239, #33, #63 ) ) ;
#309 = CARTESIAN_POINT ( 'NONE',  ( 11.80000000000000071, 0.000000000000000000, 0.1999999999999987899 ) ) ;
#310 = ORIENTED_EDGE ( 'NONE', *, *, #81, .F. ) ;
#311 = FACE_OUTER_BOUND ( 'NONE', #390, .T. ) ;
#312 = CARTESIAN_POINT ( 'NONE',  ( -6.450000000000000178, 7.898971854500428692E-16, -6.098637220230962441E-16 ) ) ;
#313 = DIRECTION ( 'NONE',  ( -0.000000000000000000, -0.000000000000000000, -1.000000000000000000 ) ) ;
#314 = DIRECTION ( 'NONE',  ( 0.000000000000000000, 0.000000000000000000, 1.000000000000000000 ) ) ;
#315 = DIRECTION ( 'NONE',  ( 0.000000000000000000, -1.000000000000000000, 0.000000000000000000 ) ) ;
#316 = ADVANCED_FACE ( 'NONE', ( #242 ), #304, .T. ) ;
#317 = DIRECTION ( 'NONE',  ( 1.000000000000000000, 0.000000000000000000, -0.000000000000000000 ) ) ;
#318 = AXIS2_PLACEMENT_3D ( 'NONE', #378, #349, #70 ) ;
#319 =( GEOMETRIC_REPRESENTATION_CONTEXT ( 3 ) GLOBAL_UNCERTAINTY_ASSIGNED_CONTEXT ( ( #203 ) ) GLOBAL_UNIT_ASSIGNED_CONTEXT ( ( #225, #397, #125 ) ) REPRESENTATION_CONTEXT ( 'NONE', 'WORKASPACE' ) );
#320 = CARTESIAN_POINT ( 'NONE',  ( 0.000000000000000000, 0.000000000000000000, 2.499999999999998668 ) ) ;
#321 = EDGE_CURVE ( 'NONE', #331, #217, #72, .T. ) ;
#322 = DIRECTION ( 'NONE',  ( -0.000000000000000000, -0.000000000000000000, -1.000000000000000000 ) ) ;
#323 = CIRCLE ( 'NONE', #375, 6.250000000000000000 ) ;
#324 = DIRECTION ( 'NONE',  ( 1.000000000000000000, 0.000000000000000000, 0.000000000000000000 ) ) ;
#325 = EDGE_LOOP ( 'NONE', ( #306, #276, #391, #407 ) ) ;
#326 = EDGE_CURVE ( 'NONE', #120, #1, #28, .T. ) ;
#327 = DIRECTION ( 'NONE',  ( 1.224646799147353207E-16, 1.000000000000000000, -0.000000000000000000 ) ) ;
#328 = EDGE_LOOP ( 'NONE', ( #162, #272, #80, #360 ) ) ;
#329 = CARTESIAN_POINT ( 'NONE',  ( -12.00000000000000178, 0.000000000000000000, 2.499999999999998668 ) ) ;
#330 = TOROIDAL_SURFACE ( 'NONE', #189, 11.80000000000000071, 0.2000000000000000111 ) ;
#331 = VERTEX_POINT ( 'NONE', #384 ) ;
#332 = DIRECTION ( 'NONE',  ( 1.224646799147353207E-16, 1.000000000000000000, -0.000000000000000000 ) ) ;
#333 = ORIENTED_EDGE ( 'NONE', *, *, #290, .F. ) ;
#334 = CARTESIAN_POINT ( 'NONE',  ( 0.000000000000000000, 0.000000000000000000, 0.1999999999999987899 ) ) ;
#335 = ORIENTED_EDGE ( 'NONE', *, *, #13, .T. ) ;
#336 = CARTESIAN_POINT ( 'NONE',  ( 0.000000000000000000, 0.000000000000000000, 2.499999999999998668 ) ) ;
#337 = CARTESIAN_POINT ( 'NONE',  ( 0.000000000000000000, 0.000000000000000000, 2.299999999999999822 ) ) ;
#338 = VECTOR ( 'NONE', #387, 1000.000000000000000 ) ;
#339 = EDGE_CURVE ( 'NONE', #118, #331, #103, .T. ) ;
#340 = DIRECTION ( 'NONE',  ( 1.000000000000000000, 0.000000000000000000, 0.000000000000000000 ) ) ;
#341 = CARTESIAN_POINT ( 'NONE',  ( 6.250000000000000000, 7.654042494670957606E-16, 0.1999999999999987899 ) ) ;
#342 = DIRECTION ( 'NONE',  ( 1.000000000000000000, 0.000000000000000000, 0.000000000000000000 ) ) ;
#343 = VERTEX_POINT ( 'NONE', #64 ) ;
#344 =( GEOMETRIC_REPRESENTATION_CONTEXT ( 3 ) GLOBAL_UNCERTAINTY_ASSIGNED_CONTEXT ( ( #143 ) ) GLOBAL_UNIT_ASSIGNED_CONTEXT ( ( #79, #187, #218 ) ) REPRESENTATION_CONTEXT ( 'NONE', 'WORKASPACE' ) );
#345 = ADVANCED_FACE ( 'NONE', ( #193, #311 ), #23, .F. ) ;
#346 = DIRECTION ( 'NONE',  ( -1.000000000000000000, 0.000000000000000000, 0.000000000000000000 ) ) ;
#347 = DIRECTION ( 'NONE',  ( 0.000000000000000000, 0.000000000000000000, 1.000000000000000000 ) ) ;
#348 = CARTESIAN_POINT ( 'NONE',  ( 0.000000000000000000, 0.000000000000000000, 0.000000000000000000 ) ) ;
#349 = DIRECTION ( 'NONE',  ( -0.000000000000000000, -0.000000000000000000, -1.000000000000000000 ) ) ;
#350 = AXIS2_PLACEMENT_3D ( 'NONE', #293, #7, #317 ) ;
#351 = PLANE ( 'NONE',  #350 ) ;
#352 = DIRECTION ( 'NONE',  ( 0.000000000000000000, -1.000000000000000000, 0.000000000000000000 ) ) ;
#353 = FACE_OUTER_BOUND ( 'NONE', #275, .T. ) ;
#354 = CIRCLE ( 'NONE', #27, 0.1999999999999996503 ) ;
#355 = ADVANCED_FACE ( 'NONE', ( #66 ), #25, .T. ) ;
#356 = CARTESIAN_POINT ( 'NONE',  ( 11.80000000000000071, 0.000000000000000000, 2.299999999999999822 ) ) ;
#357 = CARTESIAN_POINT ( 'NONE',  ( 6.450000000000000178, 0.000000000000000000, 2.299999999999999822 ) ) ;
#358 = VERTEX_POINT ( 'NONE', #128 ) ;
#359 = CARTESIAN_POINT ( 'NONE',  ( -6.250000000000000000, 0.000000000000000000, 2.299999999999999822 ) ) ;
#360 = ORIENTED_EDGE ( 'NONE', *, *, #263, .F. ) ;
#361 = DIRECTION ( 'NONE',  ( 1.000000000000000000, 0.000000000000000000, 0.000000000000000000 ) ) ;
#362 = AXIS2_PLACEMENT_3D ( 'NONE', #348, #111, #138 ) ;
#363 = ORIENTED_EDGE ( 'NONE', *, *, #13, .F. ) ;
#364 = CIRCLE ( 'NONE', #376, 0.2000000000000000944 ) ;
#365 = EDGE_CURVE ( 'NONE', #367, #78, #281, .T. ) ;
#366 = DIRECTION ( 'NONE',  ( 1.000000000000000000, 0.000000000000000000, 0.000000000000000000 ) ) ;
#367 = VERTEX_POINT ( 'NONE', #190 ) ;
#368 = ORIENTED_EDGE ( 'NONE', *, *, #21, .T. ) ;
#369 = EDGE_LOOP ( 'NONE', ( #250, #243 ) ) ;
#370 = AXIS2_PLACEMENT_3D ( 'NONE', #336, #255, #346 ) ;
#371 = DIRECTION ( 'NONE',  ( 0.000000000000000000, 0.000000000000000000, 1.000000000000000000 ) ) ;
#372 = CARTESIAN_POINT ( 'NONE',  ( -6.450000000000000178, 7.898971854500428692E-16, 0.1999999999999987899 ) ) ;
#373 = CYLINDRICAL_SURFACE ( 'NONE', #39, 6.250000000000000000 ) ;
#374 = DIRECTION ( 'NONE',  ( 1.000000000000000000, 0.000000000000000000, 0.000000000000000000 ) ) ;
#375 = AXIS2_PLACEMENT_3D ( 'NONE', #73, #35, #75 ) ;
#376 = AXIS2_PLACEMENT_3D ( 'NONE', #356, #117, #77 ) ;
#377 = CARTESIAN_POINT ( 'NONE',  ( 0.000000000000000000, 0.000000000000000000, 0.000000000000000000 ) ) ;
#378 = CARTESIAN_POINT ( 'NONE',  ( 0.000000000000000000, 0.000000000000000000, 0.000000000000000000 ) ) ;
#379 = LINE ( 'NONE', #295, #127 ) ;
#380 = AXIS2_PLACEMENT_3D ( 'NONE', #238, #267, #232 ) ;
#381 = AXIS2_PLACEMENT_3D ( 'NONE', #277, #209, #151 ) ;
#382 = LINE ( 'NONE', #173, #235 ) ;
#383 = DIRECTION ( 'NONE',  ( -0.000000000000000000, -0.000000000000000000, -1.000000000000000000 ) ) ;
#384 = CARTESIAN_POINT ( 'NONE',  ( 6.250000000000000000, 7.654042494670957606E-16, 2.299999999999999822 ) ) ;
#385 = TOROIDAL_SURFACE ( 'NONE', #32, 11.80000000000000071, 0.2000000000000000111 ) ;
#386 = TOROIDAL_SURFACE ( 'NONE', #381, 11.80000000000000071, 0.2000000000000000111 ) ;
#387 = DIRECTION ( 'NONE',  ( -0.000000000000000000, -0.000000000000000000, -1.000000000000000000 ) ) ;
#388 = ORIENTED_EDGE ( 'NONE', *, *, #134, .F. ) ;
#389 = CARTESIAN_POINT ( 'NONE',  ( 0.000000000000000000, 0.000000000000000000, 2.299999999999999822 ) ) ;
#390 = EDGE_LOOP ( 'NONE', ( #65, #186 ) ) ;
#391 = ORIENTED_EDGE ( 'NONE', *, *, #321, .F. ) ;
#392 = ADVANCED_FACE ( 'NONE', ( #402 ), #283, .F. ) ;
#393 = DIRECTION ( 'NONE',  ( 0.000000000000000000, 0.000000000000000000, 1.000000000000000000 ) ) ;
#394 = CIRCLE ( 'NONE', #181, 12.00000000000000178 ) ;
#395 = ORIENTED_EDGE ( 'NONE', *, *, #263, .T. ) ;
#396 = AXIS2_PLACEMENT_3D ( 'NONE', #357, #301, #158 ) ;
#397 =( NAMED_UNIT ( * ) PLANE_ANGLE_UNIT ( ) SI_UNIT ( $, .RADIAN. ) );
#398 = ORIENTED_EDGE ( 'NONE', *, *, #290, .T. ) ;
#399 = EDGE_CURVE ( 'NONE', #182, #343, #84, .T. ) ;
#400 = DIRECTION ( 'NONE',  ( 1.000000000000000000, 0.000000000000000000, -0.000000000000000000 ) ) ;
#401 = DIRECTION ( 'NONE',  ( -1.000000000000000000, 0.000000000000000000, 0.000000000000000000 ) ) ;
#402 = FACE_OUTER_BOUND ( 'NONE', #210, .T. ) ;
#403 = VERTEX_POINT ( 'NONE', #156 ) ;
#404 = AXIS2_PLACEMENT_3D ( 'NONE', #216, #327, #240 ) ;
#405 = DIRECTION ( 'NONE',  ( 1.000000000000000000, 0.000000000000000000, 0.000000000000000000 ) ) ;
#406 = ORIENTED_EDGE ( 'NONE', *, *, #326, .F. ) ;
#407 = ORIENTED_EDGE ( 'NONE', *, *, #339, .F. ) ;
ENDSEC;
END-ISO-10303-21;
