ISO-10303-21;
HEADER;
/****************************************************************
 * Generated by software with PDE/Lib inside                    *
 * PDElib Version v51a, created Thu 01/14/2010                  *
 * ITI Transcendata (http://www.transcendata.com/)              *
 ****************************************************************/
FILE_DESCRIPTION((''),'2;1');
FILE_NAME('D:\\JYG Perso\\CNC5\\But\S\ie Alu support pige.stp','2023-09-11T11:25:11',('JYG'),(''),'Autodesk Inventor 2011','Autodesk Inventor 2011','');
FILE_SCHEMA(('AUTOMOTIVE_DESIGN { 1 0 10303 214 1 1 1 1 }'));
ENDSEC;
DATA;
#5=APPLICATION_CONTEXT('automotive design');
#6=APPLICATION_PROTOCOL_DEFINITION('International Standard','automotive_design',2001,#5);
#7=PRODUCT_CONTEXT('',#5,'mechanical');
#8=PRODUCT('But\S\ie Alu support pige','But\S\ie Alu support pige',$,(#7));
#9=PRODUCT_RELATED_PRODUCT_CATEGORY('part',$,(#8));
#10=PRODUCT_DEFINITION_FORMATION('',$,#8);
#11=PRODUCT_DEFINITION_CONTEXT('part definition',#5,'design');
#12=PRODUCT_DEFINITION('',$,#10,#11);
#18=(NAMED_UNIT(*)PLANE_ANGLE_UNIT()SI_UNIT($,.RADIAN.));
#19=DIMENSIONAL_EXPONENTS(0.0,0.0,0.0,0.0,0.0,0.0,0.0);
#20=PLANE_ANGLE_MEASURE_WITH_UNIT(PLANE_ANGLE_MEASURE(0.017453292500000),#18);
#24=(CONVERSION_BASED_UNIT('DEGREE',#20)NAMED_UNIT(#19)PLANE_ANGLE_UNIT());
#28=(NAMED_UNIT(*)SI_UNIT($,.STERADIAN.)SOLID_ANGLE_UNIT());
#32=(LENGTH_UNIT()NAMED_UNIT(*)SI_UNIT(.MILLI.,.METRE.));
#34=UNCERTAINTY_MEASURE_WITH_UNIT(LENGTH_MEASURE(0.010000000000000),#32,'DISTANCE_ACCURACY_VALUE','');
#36=(GEOMETRIC_REPRESENTATION_CONTEXT(3)GLOBAL_UNCERTAINTY_ASSIGNED_CONTEXT((#34))GLOBAL_UNIT_ASSIGNED_CONTEXT((#24,#28,#32))REPRESENTATION_CONTEXT('None','None'));
#37=AXIS2_PLACEMENT_3D('',#38,#39,#40);
#38=CARTESIAN_POINT('',(0.0,0.0,0.0));
#39=DIRECTION('',(0.0,0.0,1.0));
#40=DIRECTION('',(1.0,0.0,0.0));
#41=SHAPE_REPRESENTATION('',(#37),#36);
#42=PRODUCT_DEFINITION_SHAPE('','',#12);
#43=SHAPE_DEFINITION_REPRESENTATION(#42,#41);
#49=(NAMED_UNIT(*)PLANE_ANGLE_UNIT()SI_UNIT($,.RADIAN.));
#50=DIMENSIONAL_EXPONENTS(0.0,0.0,0.0,0.0,0.0,0.0,0.0);
#51=PLANE_ANGLE_MEASURE_WITH_UNIT(PLANE_ANGLE_MEASURE(0.017453292500000),#49);
#55=(CONVERSION_BASED_UNIT('DEGREE',#51)NAMED_UNIT(#50)PLANE_ANGLE_UNIT());
#59=(NAMED_UNIT(*)SI_UNIT($,.STERADIAN.)SOLID_ANGLE_UNIT());
#63=(LENGTH_UNIT()NAMED_UNIT(*)SI_UNIT(.MILLI.,.METRE.));
#65=UNCERTAINTY_MEASURE_WITH_UNIT(LENGTH_MEASURE(0.000001000000000),#63,'DISTANCE_ACCURACY_VALUE','');
#67=(GEOMETRIC_REPRESENTATION_CONTEXT(3)GLOBAL_UNCERTAINTY_ASSIGNED_CONTEXT((#65))GLOBAL_UNIT_ASSIGNED_CONTEXT((#55,#59,#63))REPRESENTATION_CONTEXT('','3D'));
#68=CARTESIAN_POINT('',(-11.999999999999993,-14.999999999999991,0.0));
#69=DIRECTION('',(0.0,0.0,1.0));
#70=DIRECTION('',(-1.0,0.0,0.0));
#71=AXIS2_PLACEMENT_3D('',#68,#69,#70);
#72=CYLINDRICAL_SURFACE('',#71,6.500000000000000);
#73=CARTESIAN_POINT('',(-5.499999999999993,-14.999999999999991,-4.0));
#74=VERTEX_POINT('',#73);
#75=CARTESIAN_POINT('',(-11.999999999999993,-14.999999999999991,-4.0));
#76=DIRECTION('',(0.0,0.0,1.0));
#77=DIRECTION('',(-1.0,0.0,0.0));
#78=AXIS2_PLACEMENT_3D('',#75,#76,#77);
#79=CIRCLE('',#78,6.500000000000000);
#80=EDGE_CURVE('',#74,#74,#79,.T.);
#81=ORIENTED_EDGE('',*,*,#80,.F.);
#82=EDGE_LOOP('',(#81));
#83=FACE_OUTER_BOUND('',#82,.T.);
#84=CARTESIAN_POINT('',(-5.499999999999993,-14.999999999999991,4.0));
#85=VERTEX_POINT('',#84);
#86=CARTESIAN_POINT('',(-11.999999999999993,-14.999999999999991,4.0));
#87=DIRECTION('',(0.0,0.0,-1.0));
#88=DIRECTION('',(-1.0,0.0,0.0));
#89=AXIS2_PLACEMENT_3D('',#86,#87,#88);
#90=CIRCLE('',#89,6.500000000000000);
#91=EDGE_CURVE('',#85,#85,#90,.T.);
#92=ORIENTED_EDGE('',*,*,#91,.F.);
#93=EDGE_LOOP('',(#92));
#94=FACE_BOUND('',#93,.T.);
#95=ADVANCED_FACE('',(#83,#94),#72,.F.);
#96=CARTESIAN_POINT('',(-12.000000000000002,15.000000000000002,0.0));
#97=DIRECTION('',(0.0,0.0,1.0));
#98=DIRECTION('',(-1.0,0.0,0.0));
#99=AXIS2_PLACEMENT_3D('',#96,#97,#98);
#100=CYLINDRICAL_SURFACE('',#99,6.500000000000000);
#101=CARTESIAN_POINT('',(-5.500000000000002,15.000000000000002,-4.0));
#102=VERTEX_POINT('',#101);
#103=CARTESIAN_POINT('',(-12.000000000000002,15.000000000000002,-4.0));
#104=DIRECTION('',(0.0,0.0,1.0));
#105=DIRECTION('',(-1.0,0.0,0.0));
#106=AXIS2_PLACEMENT_3D('',#103,#104,#105);
#107=CIRCLE('',#106,6.500000000000000);
#108=EDGE_CURVE('',#102,#102,#107,.T.);
#109=ORIENTED_EDGE('',*,*,#108,.F.);
#110=EDGE_LOOP('',(#109));
#111=FACE_OUTER_BOUND('',#110,.T.);
#112=CARTESIAN_POINT('',(-5.500000000000002,15.000000000000002,4.0));
#113=VERTEX_POINT('',#112);
#114=CARTESIAN_POINT('',(-12.000000000000002,15.000000000000002,4.0));
#115=DIRECTION('',(0.0,0.0,-1.0));
#116=DIRECTION('',(-1.0,0.0,0.0));
#117=AXIS2_PLACEMENT_3D('',#114,#115,#116);
#118=CIRCLE('',#117,6.500000000000000);
#119=EDGE_CURVE('',#113,#113,#118,.T.);
#120=ORIENTED_EDGE('',*,*,#119,.F.);
#121=EDGE_LOOP('',(#120));
#122=FACE_BOUND('',#121,.T.);
#123=ADVANCED_FACE('',(#111,#122),#100,.F.);
#124=CARTESIAN_POINT('',(16.999999999999996,17.000000000000007,0.0));
#125=DIRECTION('',(0.0,0.0,1.0));
#126=DIRECTION('',(-1.0,0.0,0.0));
#127=AXIS2_PLACEMENT_3D('',#124,#125,#126);
#128=CYLINDRICAL_SURFACE('',#127,2.750000000000000);
#129=CARTESIAN_POINT('',(19.749999999999996,17.000000000000007,-4.0));
#130=VERTEX_POINT('',#129);
#131=CARTESIAN_POINT('',(16.999999999999996,17.000000000000007,-4.0));
#132=DIRECTION('',(0.0,0.0,1.0));
#133=DIRECTION('',(-1.0,0.0,0.0));
#134=AXIS2_PLACEMENT_3D('',#131,#132,#133);
#135=CIRCLE('',#134,2.750000000000000);
#136=EDGE_CURVE('',#130,#130,#135,.T.);
#137=ORIENTED_EDGE('',*,*,#136,.F.);
#138=EDGE_LOOP('',(#137));
#139=FACE_OUTER_BOUND('',#138,.T.);
#140=CARTESIAN_POINT('',(19.749999999999996,17.000000000000007,4.0));
#141=VERTEX_POINT('',#140);
#142=CARTESIAN_POINT('',(16.999999999999996,17.000000000000007,4.0));
#143=DIRECTION('',(0.0,0.0,-1.0));
#144=DIRECTION('',(-1.0,0.0,0.0));
#145=AXIS2_PLACEMENT_3D('',#142,#143,#144);
#146=CIRCLE('',#145,2.750000000000000);
#147=EDGE_CURVE('',#141,#141,#146,.T.);
#148=ORIENTED_EDGE('',*,*,#147,.F.);
#149=EDGE_LOOP('',(#148));
#150=FACE_BOUND('',#149,.T.);
#151=ADVANCED_FACE('',(#139,#150),#128,.F.);
#152=CARTESIAN_POINT('',(17.000000000000007,-6.999999999999993,0.0));
#153=DIRECTION('',(0.0,0.0,1.0));
#154=DIRECTION('',(-1.0,0.0,0.0));
#155=AXIS2_PLACEMENT_3D('',#152,#153,#154);
#156=CYLINDRICAL_SURFACE('',#155,2.750000000000000);
#157=CARTESIAN_POINT('',(19.750000000000007,-6.999999999999993,-4.0));
#158=VERTEX_POINT('',#157);
#159=CARTESIAN_POINT('',(17.000000000000007,-6.999999999999993,-4.0));
#160=DIRECTION('',(0.0,0.0,1.0));
#161=DIRECTION('',(-1.0,0.0,0.0));
#162=AXIS2_PLACEMENT_3D('',#159,#160,#161);
#163=CIRCLE('',#162,2.750000000000000);
#164=EDGE_CURVE('',#158,#158,#163,.T.);
#165=ORIENTED_EDGE('',*,*,#164,.F.);
#166=EDGE_LOOP('',(#165));
#167=FACE_OUTER_BOUND('',#166,.T.);
#168=CARTESIAN_POINT('',(19.750000000000007,-6.999999999999993,4.0));
#169=VERTEX_POINT('',#168);
#170=CARTESIAN_POINT('',(17.000000000000007,-6.999999999999993,4.0));
#171=DIRECTION('',(0.0,0.0,-1.0));
#172=DIRECTION('',(-1.0,0.0,0.0));
#173=AXIS2_PLACEMENT_3D('',#170,#171,#172);
#174=CIRCLE('',#173,2.750000000000000);
#175=EDGE_CURVE('',#169,#169,#174,.T.);
#176=ORIENTED_EDGE('',*,*,#175,.F.);
#177=EDGE_LOOP('',(#176));
#178=FACE_BOUND('',#177,.T.);
#179=ADVANCED_FACE('',(#167,#178),#156,.F.);
#180=CARTESIAN_POINT('',(17.0,7.000000000000009,0.0));
#181=DIRECTION('',(0.0,0.0,1.0));
#182=DIRECTION('',(-1.0,0.0,0.0));
#183=AXIS2_PLACEMENT_3D('',#180,#181,#182);
#184=CYLINDRICAL_SURFACE('',#183,2.750000000000000);
#185=CARTESIAN_POINT('',(19.750000000000000,7.000000000000009,-4.0));
#186=VERTEX_POINT('',#185);
#187=CARTESIAN_POINT('',(17.0,7.000000000000009,-4.0));
#188=DIRECTION('',(0.0,0.0,1.0));
#189=DIRECTION('',(-1.0,0.0,0.0));
#190=AXIS2_PLACEMENT_3D('',#187,#188,#189);
#191=CIRCLE('',#190,2.750000000000000);
#192=EDGE_CURVE('',#186,#186,#191,.T.);
#193=ORIENTED_EDGE('',*,*,#192,.F.);
#194=EDGE_LOOP('',(#193));
#195=FACE_OUTER_BOUND('',#194,.T.);
#196=CARTESIAN_POINT('',(19.750000000000000,7.000000000000009,4.0));
#197=VERTEX_POINT('',#196);
#198=CARTESIAN_POINT('',(17.0,7.000000000000009,4.0));
#199=DIRECTION('',(0.0,0.0,-1.0));
#200=DIRECTION('',(-1.0,0.0,0.0));
#201=AXIS2_PLACEMENT_3D('',#198,#199,#200);
#202=CIRCLE('',#201,2.750000000000000);
#203=EDGE_CURVE('',#197,#197,#202,.T.);
#204=ORIENTED_EDGE('',*,*,#203,.F.);
#205=EDGE_LOOP('',(#204));
#206=FACE_BOUND('',#205,.T.);
#207=ADVANCED_FACE('',(#195,#206),#184,.F.);
#208=CARTESIAN_POINT('',(17.000000000000007,-16.999999999999993,0.0));
#209=DIRECTION('',(0.0,0.0,1.0));
#210=DIRECTION('',(-1.0,0.0,0.0));
#211=AXIS2_PLACEMENT_3D('',#208,#209,#210);
#212=CYLINDRICAL_SURFACE('',#211,2.750000000000000);
#213=CARTESIAN_POINT('',(19.750000000000011,-16.999999999999993,-4.0));
#214=VERTEX_POINT('',#213);
#215=CARTESIAN_POINT('',(17.000000000000007,-16.999999999999993,-4.0));
#216=DIRECTION('',(0.0,0.0,1.0));
#217=DIRECTION('',(-1.0,0.0,0.0));
#218=AXIS2_PLACEMENT_3D('',#215,#216,#217);
#219=CIRCLE('',#218,2.750000000000000);
#220=EDGE_CURVE('',#214,#214,#219,.T.);
#221=ORIENTED_EDGE('',*,*,#220,.F.);
#222=EDGE_LOOP('',(#221));
#223=FACE_OUTER_BOUND('',#222,.T.);
#224=CARTESIAN_POINT('',(19.750000000000011,-16.999999999999993,4.0));
#225=VERTEX_POINT('',#224);
#226=CARTESIAN_POINT('',(17.000000000000007,-16.999999999999993,4.0));
#227=DIRECTION('',(0.0,0.0,-1.0));
#228=DIRECTION('',(-1.0,0.0,0.0));
#229=AXIS2_PLACEMENT_3D('',#226,#227,#228);
#230=CIRCLE('',#229,2.750000000000000);
#231=EDGE_CURVE('',#225,#225,#230,.T.);
#232=ORIENTED_EDGE('',*,*,#231,.F.);
#233=EDGE_LOOP('',(#232));
#234=FACE_BOUND('',#233,.T.);
#235=ADVANCED_FACE('',(#223,#234),#212,.F.);
#236=CARTESIAN_POINT('',(-1.000000000000001,5.882740E-015,-4.0));
#237=DIRECTION('',(0.0,0.0,1.0));
#238=DIRECTION('',(1.0,0.0,0.0));
#239=AXIS2_PLACEMENT_3D('',#236,#237,#238);
#240=PLANE('',#239);
#241=CARTESIAN_POINT('',(-25.000000000000004,25.000000000000007,-4.0));
#242=VERTEX_POINT('',#241);
#243=CARTESIAN_POINT('',(-24.999999999999996,-25.000000000000004,-4.0));
#244=VERTEX_POINT('',#243);
#245=CARTESIAN_POINT('',(-25.000000000000007,25.000000000000011,-4.0));
#246=DIRECTION('',(0.0,-1.0,0.0));
#247=VECTOR('',#246,50.000000000000014);
#248=LINE('',#245,#247);
#249=EDGE_CURVE('',#242,#244,#248,.T.);
#250=ORIENTED_EDGE('',*,*,#249,.F.);
#251=CARTESIAN_POINT('',(23.000000000000004,25.000000000000018,-4.0));
#252=VERTEX_POINT('',#251);
#253=CARTESIAN_POINT('',(23.000000000000004,25.000000000000014,-4.0));
#254=DIRECTION('',(-1.0,0.0,0.0));
#255=VECTOR('',#254,48.000000000000007);
#256=LINE('',#253,#255);
#257=EDGE_CURVE('',#252,#242,#256,.T.);
#258=ORIENTED_EDGE('',*,*,#257,.F.);
#259=CARTESIAN_POINT('',(23.000000000000007,-24.999999999999993,-4.0));
#260=VERTEX_POINT('',#259);
#261=CARTESIAN_POINT('',(23.000000000000007,-24.999999999999989,-4.0));
#262=DIRECTION('',(0.0,1.0,0.0));
#263=VECTOR('',#262,50.000000000000007);
#264=LINE('',#261,#263);
#265=EDGE_CURVE('',#260,#252,#264,.T.);
#266=ORIENTED_EDGE('',*,*,#265,.F.);
#267=CARTESIAN_POINT('',(-25.0,-25.000000000000007,-4.0));
#268=DIRECTION('',(1.0,0.0,0.0));
#269=VECTOR('',#268,48.000000000000007);
#270=LINE('',#267,#269);
#271=EDGE_CURVE('',#244,#260,#270,.T.);
#272=ORIENTED_EDGE('',*,*,#271,.F.);
#273=EDGE_LOOP('',(#250,#258,#266,#272));
#274=FACE_OUTER_BOUND('',#273,.T.);
#275=ORIENTED_EDGE('',*,*,#80,.T.);
#276=EDGE_LOOP('',(#275));
#277=FACE_BOUND('',#276,.T.);
#278=ORIENTED_EDGE('',*,*,#108,.T.);
#279=EDGE_LOOP('',(#278));
#280=FACE_BOUND('',#279,.T.);
#281=ORIENTED_EDGE('',*,*,#136,.T.);
#282=EDGE_LOOP('',(#281));
#283=FACE_BOUND('',#282,.T.);
#284=ORIENTED_EDGE('',*,*,#164,.T.);
#285=EDGE_LOOP('',(#284));
#286=FACE_BOUND('',#285,.T.);
#287=ORIENTED_EDGE('',*,*,#192,.T.);
#288=EDGE_LOOP('',(#287));
#289=FACE_BOUND('',#288,.T.);
#290=ORIENTED_EDGE('',*,*,#220,.T.);
#291=EDGE_LOOP('',(#290));
#292=FACE_BOUND('',#291,.T.);
#293=ADVANCED_FACE('',(#274,#277,#280,#283,#286,#289,#292),#240,.F.);
#294=CARTESIAN_POINT('',(23.000000000000004,25.000000000000018,0.0));
#295=DIRECTION('',(1.0,0.0,0.0));
#296=DIRECTION('',(0.0,0.0,-1.0));
#297=AXIS2_PLACEMENT_3D('',#294,#295,#296);
#298=PLANE('',#297);
#299=CARTESIAN_POINT('',(23.000000000000004,25.000000000000018,4.0));
#300=VERTEX_POINT('',#299);
#301=CARTESIAN_POINT('',(23.000000000000007,-24.999999999999993,4.0));
#302=VERTEX_POINT('',#301);
#303=CARTESIAN_POINT('',(23.000000000000004,25.000000000000018,4.0));
#304=DIRECTION('',(0.0,-1.0,0.0));
#305=VECTOR('',#304,50.000000000000007);
#306=LINE('',#303,#305);
#307=EDGE_CURVE('',#300,#302,#306,.T.);
#308=ORIENTED_EDGE('',*,*,#307,.T.);
#309=CARTESIAN_POINT('',(23.000000000000007,-24.999999999999993,4.0));
#310=DIRECTION('',(0.0,0.0,-1.0));
#311=VECTOR('',#310,8.0);
#312=LINE('',#309,#311);
#313=EDGE_CURVE('',#302,#260,#312,.T.);
#314=ORIENTED_EDGE('',*,*,#313,.T.);
#315=ORIENTED_EDGE('',*,*,#265,.T.);
#316=CARTESIAN_POINT('',(23.000000000000004,25.000000000000018,4.0));
#317=DIRECTION('',(0.0,0.0,-1.0));
#318=VECTOR('',#317,8.0);
#319=LINE('',#316,#318);
#320=EDGE_CURVE('',#300,#252,#319,.T.);
#321=ORIENTED_EDGE('',*,*,#320,.F.);
#322=EDGE_LOOP('',(#308,#314,#315,#321));
#323=FACE_OUTER_BOUND('',#322,.T.);
#324=ADVANCED_FACE('',(#323),#298,.T.);
#325=CARTESIAN_POINT('',(23.000000000000007,-24.999999999999993,0.0));
#326=DIRECTION('',(0.0,-1.0,0.0));
#327=DIRECTION('',(0.0,0.0,-1.0));
#328=AXIS2_PLACEMENT_3D('',#325,#326,#327);
#329=PLANE('',#328);
#330=CARTESIAN_POINT('',(-24.999999999999996,-25.000000000000004,4.0));
#331=VERTEX_POINT('',#330);
#332=CARTESIAN_POINT('',(23.000000000000007,-24.999999999999993,4.0));
#333=DIRECTION('',(-1.0,0.0,0.0));
#334=VECTOR('',#333,48.000000000000007);
#335=LINE('',#332,#334);
#336=EDGE_CURVE('',#302,#331,#335,.T.);
#337=ORIENTED_EDGE('',*,*,#336,.T.);
#338=CARTESIAN_POINT('',(-24.999999999999996,-25.000000000000004,4.0));
#339=DIRECTION('',(0.0,0.0,-1.0));
#340=VECTOR('',#339,8.0);
#341=LINE('',#338,#340);
#342=EDGE_CURVE('',#331,#244,#341,.T.);
#343=ORIENTED_EDGE('',*,*,#342,.T.);
#344=ORIENTED_EDGE('',*,*,#271,.T.);
#345=ORIENTED_EDGE('',*,*,#313,.F.);
#346=EDGE_LOOP('',(#337,#343,#344,#345));
#347=FACE_OUTER_BOUND('',#346,.T.);
#348=ADVANCED_FACE('',(#347),#329,.T.);
#349=CARTESIAN_POINT('',(-24.999999999999996,-25.000000000000004,0.0));
#350=DIRECTION('',(-1.0,0.0,0.0));
#351=DIRECTION('',(0.0,0.0,1.0));
#352=AXIS2_PLACEMENT_3D('',#349,#350,#351);
#353=PLANE('',#352);
#354=CARTESIAN_POINT('',(-25.000000000000004,25.000000000000007,4.0));
#355=VERTEX_POINT('',#354);
#356=CARTESIAN_POINT('',(-24.999999999999996,-25.000000000000004,4.0));
#357=DIRECTION('',(0.0,1.0,0.0));
#358=VECTOR('',#357,50.000000000000014);
#359=LINE('',#356,#358);
#360=EDGE_CURVE('',#331,#355,#359,.T.);
#361=ORIENTED_EDGE('',*,*,#360,.T.);
#362=CARTESIAN_POINT('',(-25.000000000000004,25.000000000000007,-4.0));
#363=DIRECTION('',(0.0,0.0,1.0));
#364=VECTOR('',#363,8.0);
#365=LINE('',#362,#364);
#366=EDGE_CURVE('',#242,#355,#365,.T.);
#367=ORIENTED_EDGE('',*,*,#366,.F.);
#368=ORIENTED_EDGE('',*,*,#249,.T.);
#369=ORIENTED_EDGE('',*,*,#342,.F.);
#370=EDGE_LOOP('',(#361,#367,#368,#369));
#371=FACE_OUTER_BOUND('',#370,.T.);
#372=ADVANCED_FACE('',(#371),#353,.T.);
#373=CARTESIAN_POINT('',(-25.000000000000004,25.000000000000007,0.0));
#374=DIRECTION('',(0.0,1.0,0.0));
#375=DIRECTION('',(0.0,0.0,1.0));
#376=AXIS2_PLACEMENT_3D('',#373,#374,#375);
#377=PLANE('',#376);
#378=CARTESIAN_POINT('',(-25.000000000000004,25.000000000000007,4.0));
#379=DIRECTION('',(1.0,0.0,0.0));
#380=VECTOR('',#379,48.000000000000007);
#381=LINE('',#378,#380);
#382=EDGE_CURVE('',#355,#300,#381,.T.);
#383=ORIENTED_EDGE('',*,*,#382,.T.);
#384=ORIENTED_EDGE('',*,*,#320,.T.);
#385=ORIENTED_EDGE('',*,*,#257,.T.);
#386=ORIENTED_EDGE('',*,*,#366,.T.);
#387=EDGE_LOOP('',(#383,#384,#385,#386));
#388=FACE_OUTER_BOUND('',#387,.T.);
#389=ADVANCED_FACE('',(#388),#377,.T.);
#390=CARTESIAN_POINT('',(-0.999999999999999,5.722077E-015,4.0));
#391=DIRECTION('',(0.0,0.0,1.0));
#392=DIRECTION('',(1.0,0.0,0.0));
#393=AXIS2_PLACEMENT_3D('',#390,#391,#392);
#394=PLANE('',#393);
#395=ORIENTED_EDGE('',*,*,#307,.F.);
#396=ORIENTED_EDGE('',*,*,#382,.F.);
#397=ORIENTED_EDGE('',*,*,#360,.F.);
#398=ORIENTED_EDGE('',*,*,#336,.F.);
#399=EDGE_LOOP('',(#395,#396,#397,#398));
#400=FACE_OUTER_BOUND('',#399,.T.);
#401=ORIENTED_EDGE('',*,*,#91,.T.);
#402=EDGE_LOOP('',(#401));
#403=FACE_BOUND('',#402,.T.);
#404=ORIENTED_EDGE('',*,*,#119,.T.);
#405=EDGE_LOOP('',(#404));
#406=FACE_BOUND('',#405,.T.);
#407=ORIENTED_EDGE('',*,*,#147,.T.);
#408=EDGE_LOOP('',(#407));
#409=FACE_BOUND('',#408,.T.);
#410=ORIENTED_EDGE('',*,*,#175,.T.);
#411=EDGE_LOOP('',(#410));
#412=FACE_BOUND('',#411,.T.);
#413=ORIENTED_EDGE('',*,*,#203,.T.);
#414=EDGE_LOOP('',(#413));
#415=FACE_BOUND('',#414,.T.);
#416=ORIENTED_EDGE('',*,*,#231,.T.);
#417=EDGE_LOOP('',(#416));
#418=FACE_BOUND('',#417,.T.);
#419=ADVANCED_FACE('',(#400,#403,#406,#409,#412,#415,#418),#394,.T.);
#420=CLOSED_SHELL('',(#95,#123,#151,#179,#207,#235,#293,#324,#348,#372,#389,#419));
#421=MANIFOLD_SOLID_BREP('Solide1',#420);
#422=COLOUR_RGB('',0.901961028575897,0.0,0.0);
#423=FILL_AREA_STYLE_COLOUR('',#422);
#424=FILL_AREA_STYLE('',(#423));
#425=SURFACE_STYLE_FILL_AREA(#424);
#426=SURFACE_SIDE_STYLE('',(#425));
#427=SURFACE_STYLE_USAGE(.BOTH.,#426);
#428=PRESENTATION_STYLE_ASSIGNMENT((#427));
#429=STYLED_ITEM('',(#428),#95);
#430=STYLED_ITEM('',(#428),#123);
#431=STYLED_ITEM('',(#428),#151);
#432=STYLED_ITEM('',(#428),#179);
#433=STYLED_ITEM('',(#428),#207);
#434=STYLED_ITEM('',(#428),#235);
#435=STYLED_ITEM('',(#428),#293);
#436=STYLED_ITEM('',(#428),#324);
#437=STYLED_ITEM('',(#428),#348);
#438=STYLED_ITEM('',(#428),#372);
#439=STYLED_ITEM('',(#428),#389);
#440=STYLED_ITEM('',(#428),#419);
#441=MECHANICAL_DESIGN_GEOMETRIC_PRESENTATION_REPRESENTATION('',(#429,#430,#431,#432,#433,#434,#435,#436,#437,#438,#439,#440,#449),#67);
#442=COLOUR_RGB('M\X2\FFFD\X0\tal-AL-6061 (opaque)',0.847059011459351,0.839215993881226,0.839215993881226);
#443=FILL_AREA_STYLE_COLOUR('M\X2\FFFD\X0\tal-AL-6061 (opaque)',#442);
#444=FILL_AREA_STYLE('M\X2\FFFD\X0\tal-AL-6061 (opaque)',(#443));
#445=SURFACE_STYLE_FILL_AREA(#444);
#446=SURFACE_SIDE_STYLE('M\X2\FFFD\X0\tal-AL-6061 (opaque)',(#445));
#447=SURFACE_STYLE_USAGE(.BOTH.,#446);
#448=PRESENTATION_STYLE_ASSIGNMENT((#447));
#449=STYLED_ITEM('',(#448),#421);
#450=ADVANCED_BREP_SHAPE_REPRESENTATION('ABSR',(#421),#36);
#451=SHAPE_REPRESENTATION_RELATIONSHIP('SRR','None',#450,#41);
ENDSEC;
END-ISO-10303-21;
