ISO-10303-21;
HEADER;
/****************************************************************
 * Generated by software with PDE/Lib inside                    *
 * PDElib Version v51a, created Thu 01/14/2010                  *
 * ITI Transcendata (http://www.transcendata.com/)              *
 ****************************************************************/
FILE_DESCRIPTION((''),'2;1');
FILE_NAME('D:\\JYG Perso\\CNC5\\But\S\ie Alu glissi\S\hre.stp','2023-09-11T11:25:32',('JYG'),(''),'Autodesk Inventor 2011','Autodesk Inventor 2011','');
FILE_SCHEMA(('AUTOMOTIVE_DESIGN { 1 0 10303 214 1 1 1 1 }'));
ENDSEC;
DATA;
#5=APPLICATION_CONTEXT('automotive design');
#6=APPLICATION_PROTOCOL_DEFINITION('International Standard','automotive_design',2001,#5);
#7=PRODUCT_CONTEXT('',#5,'mechanical');
#8=PRODUCT('But\S\ie Alu glissi\S\hre','But\S\ie Alu glissi\S\hre',$,(#7));
#9=PRODUCT_RELATED_PRODUCT_CATEGORY('part',$,(#8));
#10=PRODUCT_DEFINITION_FORMATION('',$,#8);
#11=PRODUCT_DEFINITION_CONTEXT('part definition',#5,'design');
#12=PRODUCT_DEFINITION('',$,#10,#11);
#18=(NAMED_UNIT(*)PLANE_ANGLE_UNIT()SI_UNIT($,.RADIAN.));
#19=DIMENSIONAL_EXPONENTS(0.0,0.0,0.0,0.0,0.0,0.0,0.0);
#20=PLANE_ANGLE_MEASURE_WITH_UNIT(PLANE_ANGLE_MEASURE(0.017453292500000),#18);
#24=(CONVERSION_BASED_UNIT('DEGREE',#20)NAMED_UNIT(#19)PLANE_ANGLE_UNIT());
#28=(NAMED_UNIT(*)SI_UNIT($,.STERADIAN.)SOLID_ANGLE_UNIT());
#32=(LENGTH_UNIT()NAMED_UNIT(*)SI_UNIT(.MILLI.,.METRE.));
#34=UNCERTAINTY_MEASURE_WITH_UNIT(LENGTH_MEASURE(0.010000000000000),#32,'DISTANCE_ACCURACY_VALUE','');
#36=(GEOMETRIC_REPRESENTATION_CONTEXT(3)GLOBAL_UNCERTAINTY_ASSIGNED_CONTEXT((#34))GLOBAL_UNIT_ASSIGNED_CONTEXT((#24,#28,#32))REPRESENTATION_CONTEXT('None','None'));
#37=AXIS2_PLACEMENT_3D('',#38,#39,#40);
#38=CARTESIAN_POINT('',(0.0,0.0,0.0));
#39=DIRECTION('',(0.0,0.0,1.0));
#40=DIRECTION('',(1.0,0.0,0.0));
#41=SHAPE_REPRESENTATION('',(#37),#36);
#42=PRODUCT_DEFINITION_SHAPE('','',#12);
#43=SHAPE_DEFINITION_REPRESENTATION(#42,#41);
#49=(NAMED_UNIT(*)PLANE_ANGLE_UNIT()SI_UNIT($,.RADIAN.));
#50=DIMENSIONAL_EXPONENTS(0.0,0.0,0.0,0.0,0.0,0.0,0.0);
#51=PLANE_ANGLE_MEASURE_WITH_UNIT(PLANE_ANGLE_MEASURE(0.017453292500000),#49);
#55=(CONVERSION_BASED_UNIT('DEGREE',#51)NAMED_UNIT(#50)PLANE_ANGLE_UNIT());
#59=(NAMED_UNIT(*)SI_UNIT($,.STERADIAN.)SOLID_ANGLE_UNIT());
#63=(LENGTH_UNIT()NAMED_UNIT(*)SI_UNIT(.MILLI.,.METRE.));
#65=UNCERTAINTY_MEASURE_WITH_UNIT(LENGTH_MEASURE(0.000001000000000),#63,'DISTANCE_ACCURACY_VALUE','');
#67=(GEOMETRIC_REPRESENTATION_CONTEXT(3)GLOBAL_UNCERTAINTY_ASSIGNED_CONTEXT((#65))GLOBAL_UNIT_ASSIGNED_CONTEXT((#55,#59,#63))REPRESENTATION_CONTEXT('','3D'));
#68=CARTESIAN_POINT('',(0.0,0.0,16.0));
#69=DIRECTION('',(0.0,0.0,-1.0));
#70=DIRECTION('',(-1.0,0.0,0.0));
#71=AXIS2_PLACEMENT_3D('',#68,#69,#70);
#72=CYLINDRICAL_SURFACE('',#71,3.250000000000000);
#73=CARTESIAN_POINT('',(3.250000000000000,3.980102E-016,-3.999999999999999));
#74=VERTEX_POINT('',#73);
#75=CARTESIAN_POINT('',(0.0,0.0,-3.999999999999999));
#76=DIRECTION('',(0.0,0.0,1.0));
#77=DIRECTION('',(-1.0,0.0,0.0));
#78=AXIS2_PLACEMENT_3D('',#75,#76,#77);
#79=CIRCLE('',#78,3.250000000000000);
#80=EDGE_CURVE('',#74,#74,#79,.T.);
#81=ORIENTED_EDGE('',*,*,#80,.F.);
#82=EDGE_LOOP('',(#81));
#83=FACE_OUTER_BOUND('',#82,.T.);
#84=CARTESIAN_POINT('',(3.250000000000000,3.980102E-016,16.0));
#85=VERTEX_POINT('',#84);
#86=CARTESIAN_POINT('',(0.0,0.0,16.0));
#87=DIRECTION('',(0.0,0.0,-1.0));
#88=DIRECTION('',(-1.0,0.0,0.0));
#89=AXIS2_PLACEMENT_3D('',#86,#87,#88);
#90=CIRCLE('',#89,3.250000000000000);
#91=EDGE_CURVE('',#85,#85,#90,.T.);
#92=ORIENTED_EDGE('',*,*,#91,.F.);
#93=EDGE_LOOP('',(#92));
#94=FACE_BOUND('',#93,.T.);
#95=ADVANCED_FACE('',(#83,#94),#72,.F.);
#96=CARTESIAN_POINT('',(-24.999999999999996,-12.000000000000004,8.000000000000002));
#97=DIRECTION('',(1.0,2.960595E-016,0.0));
#98=DIRECTION('',(0.0,0.0,-1.0));
#99=AXIS2_PLACEMENT_3D('',#96,#97,#98);
#100=CYLINDRICAL_SURFACE('',#99,2.500000000000000);
#101=CARTESIAN_POINT('',(-9.999999999999996,-12.0,10.500000000000004));
#102=VERTEX_POINT('',#101);
#103=CARTESIAN_POINT('',(-9.999999999999996,-12.0,8.000000000000002));
#104=DIRECTION('',(-1.0,0.0,0.0));
#105=DIRECTION('',(0.0,0.0,-1.0));
#106=AXIS2_PLACEMENT_3D('',#103,#104,#105);
#107=CIRCLE('',#106,2.500000000000000);
#108=EDGE_CURVE('',#102,#102,#107,.T.);
#109=ORIENTED_EDGE('',*,*,#108,.F.);
#110=EDGE_LOOP('',(#109));
#111=FACE_OUTER_BOUND('',#110,.T.);
#112=CARTESIAN_POINT('',(-24.999999999999996,-12.000000000000004,10.500000000000004));
#113=VERTEX_POINT('',#112);
#114=CARTESIAN_POINT('',(-25.0,-12.000000000000004,8.000000000000002));
#115=DIRECTION('',(1.0,0.0,0.0));
#116=DIRECTION('',(0.0,0.0,-1.0));
#117=AXIS2_PLACEMENT_3D('',#114,#115,#116);
#118=CIRCLE('',#117,2.500000000000000);
#119=EDGE_CURVE('',#113,#113,#118,.T.);
#120=ORIENTED_EDGE('',*,*,#119,.F.);
#121=EDGE_LOOP('',(#120));
#122=FACE_BOUND('',#121,.T.);
#123=ADVANCED_FACE('',(#111,#122),#100,.F.);
#124=CARTESIAN_POINT('',(-9.999999999999996,-12.0,8.000000000000002));
#125=DIRECTION('',(1.0,0.0,0.0));
#126=DIRECTION('',(0.0,0.0,-1.0));
#127=AXIS2_PLACEMENT_3D('',#124,#125,#126);
#128=PLANE('',#127);
#129=ORIENTED_EDGE('',*,*,#108,.T.);
#130=EDGE_LOOP('',(#129));
#131=FACE_OUTER_BOUND('',#130,.T.);
#132=ADVANCED_FACE('',(#131),#128,.F.);
#133=CARTESIAN_POINT('',(-25.000000000000004,11.999999999999989,8.0));
#134=DIRECTION('',(1.0,2.960595E-016,0.0));
#135=DIRECTION('',(0.0,0.0,-1.0));
#136=AXIS2_PLACEMENT_3D('',#133,#134,#135);
#137=CYLINDRICAL_SURFACE('',#136,2.500000000000000);
#138=CARTESIAN_POINT('',(-10.000000000000004,11.999999999999993,10.500000000000000));
#139=VERTEX_POINT('',#138);
#140=CARTESIAN_POINT('',(-10.000000000000004,11.999999999999993,8.0));
#141=DIRECTION('',(-1.0,0.0,0.0));
#142=DIRECTION('',(0.0,0.0,-1.0));
#143=AXIS2_PLACEMENT_3D('',#140,#141,#142);
#144=CIRCLE('',#143,2.500000000000000);
#145=EDGE_CURVE('',#139,#139,#144,.T.);
#146=ORIENTED_EDGE('',*,*,#145,.F.);
#147=EDGE_LOOP('',(#146));
#148=FACE_OUTER_BOUND('',#147,.T.);
#149=CARTESIAN_POINT('',(-25.000000000000004,11.999999999999989,10.500000000000000));
#150=VERTEX_POINT('',#149);
#151=CARTESIAN_POINT('',(-25.000000000000004,11.999999999999989,8.0));
#152=DIRECTION('',(1.0,0.0,0.0));
#153=DIRECTION('',(0.0,0.0,-1.0));
#154=AXIS2_PLACEMENT_3D('',#151,#152,#153);
#155=CIRCLE('',#154,2.500000000000000);
#156=EDGE_CURVE('',#150,#150,#155,.T.);
#157=ORIENTED_EDGE('',*,*,#156,.F.);
#158=EDGE_LOOP('',(#157));
#159=FACE_BOUND('',#158,.T.);
#160=ADVANCED_FACE('',(#148,#159),#137,.F.);
#161=CARTESIAN_POINT('',(-10.000000000000004,11.999999999999993,8.0));
#162=DIRECTION('',(1.0,0.0,0.0));
#163=DIRECTION('',(0.0,0.0,-1.0));
#164=AXIS2_PLACEMENT_3D('',#161,#162,#163);
#165=PLANE('',#164);
#166=ORIENTED_EDGE('',*,*,#145,.T.);
#167=EDGE_LOOP('',(#166));
#168=FACE_OUTER_BOUND('',#167,.T.);
#169=ADVANCED_FACE('',(#168),#165,.F.);
#170=CARTESIAN_POINT('',(25.000000000000007,-11.999999999999996,8.000000000000002));
#171=DIRECTION('',(-1.0,-2.960595E-016,0.0));
#172=DIRECTION('',(0.0,0.0,1.0));
#173=AXIS2_PLACEMENT_3D('',#170,#171,#172);
#174=CYLINDRICAL_SURFACE('',#173,2.500000000000000);
#175=CARTESIAN_POINT('',(10.000000000000009,-12.000000000000002,5.500000000000002));
#176=VERTEX_POINT('',#175);
#177=CARTESIAN_POINT('',(10.000000000000009,-12.000000000000002,8.000000000000002));
#178=DIRECTION('',(1.0,0.0,0.0));
#179=DIRECTION('',(0.0,0.0,1.0));
#180=AXIS2_PLACEMENT_3D('',#177,#178,#179);
#181=CIRCLE('',#180,2.500000000000000);
#182=EDGE_CURVE('',#176,#176,#181,.T.);
#183=ORIENTED_EDGE('',*,*,#182,.F.);
#184=EDGE_LOOP('',(#183));
#185=FACE_OUTER_BOUND('',#184,.T.);
#186=CARTESIAN_POINT('',(25.000000000000007,-11.999999999999996,5.500000000000002));
#187=VERTEX_POINT('',#186);
#188=CARTESIAN_POINT('',(25.000000000000004,-11.999999999999996,8.000000000000002));
#189=DIRECTION('',(-1.0,0.0,0.0));
#190=DIRECTION('',(0.0,0.0,1.0));
#191=AXIS2_PLACEMENT_3D('',#188,#189,#190);
#192=CIRCLE('',#191,2.500000000000000);
#193=EDGE_CURVE('',#187,#187,#192,.T.);
#194=ORIENTED_EDGE('',*,*,#193,.F.);
#195=EDGE_LOOP('',(#194));
#196=FACE_BOUND('',#195,.T.);
#197=ADVANCED_FACE('',(#185,#196),#174,.F.);
#198=CARTESIAN_POINT('',(10.000000000000009,-12.000000000000002,8.000000000000002));
#199=DIRECTION('',(-1.0,0.0,0.0));
#200=DIRECTION('',(0.0,0.0,1.0));
#201=AXIS2_PLACEMENT_3D('',#198,#199,#200);
#202=PLANE('',#201);
#203=ORIENTED_EDGE('',*,*,#182,.T.);
#204=EDGE_LOOP('',(#203));
#205=FACE_OUTER_BOUND('',#204,.T.);
#206=ADVANCED_FACE('',(#205),#202,.F.);
#207=CARTESIAN_POINT('',(25.000000000000004,11.999999999999995,8.000000000000004));
#208=DIRECTION('',(-1.0,-2.960595E-016,0.0));
#209=DIRECTION('',(0.0,0.0,1.0));
#210=AXIS2_PLACEMENT_3D('',#207,#208,#209);
#211=CYLINDRICAL_SURFACE('',#210,2.500000000000000);
#212=CARTESIAN_POINT('',(10.000000000000004,11.999999999999991,5.500000000000003));
#213=VERTEX_POINT('',#212);
#214=CARTESIAN_POINT('',(10.000000000000004,11.999999999999991,8.000000000000004));
#215=DIRECTION('',(1.0,0.0,0.0));
#216=DIRECTION('',(0.0,0.0,1.0));
#217=AXIS2_PLACEMENT_3D('',#214,#215,#216);
#218=CIRCLE('',#217,2.500000000000000);
#219=EDGE_CURVE('',#213,#213,#218,.T.);
#220=ORIENTED_EDGE('',*,*,#219,.F.);
#221=EDGE_LOOP('',(#220));
#222=FACE_OUTER_BOUND('',#221,.T.);
#223=CARTESIAN_POINT('',(25.000000000000004,11.999999999999995,5.500000000000003));
#224=VERTEX_POINT('',#223);
#225=CARTESIAN_POINT('',(25.0,11.999999999999995,8.000000000000004));
#226=DIRECTION('',(-1.0,0.0,0.0));
#227=DIRECTION('',(0.0,0.0,1.0));
#228=AXIS2_PLACEMENT_3D('',#225,#226,#227);
#229=CIRCLE('',#228,2.500000000000000);
#230=EDGE_CURVE('',#224,#224,#229,.T.);
#231=ORIENTED_EDGE('',*,*,#230,.F.);
#232=EDGE_LOOP('',(#231));
#233=FACE_BOUND('',#232,.T.);
#234=ADVANCED_FACE('',(#222,#233),#211,.F.);
#235=CARTESIAN_POINT('',(10.000000000000004,11.999999999999991,8.000000000000004));
#236=DIRECTION('',(-1.0,0.0,0.0));
#237=DIRECTION('',(0.0,0.0,1.0));
#238=AXIS2_PLACEMENT_3D('',#235,#236,#237);
#239=PLANE('',#238);
#240=ORIENTED_EDGE('',*,*,#219,.T.);
#241=EDGE_LOOP('',(#240));
#242=FACE_OUTER_BOUND('',#241,.T.);
#243=ADVANCED_FACE('',(#242),#239,.F.);
#244=CARTESIAN_POINT('',(-25.0,-4.000000000000004,0.0));
#245=DIRECTION('',(0.0,-1.0,0.0));
#246=DIRECTION('',(0.0,0.0,-1.0));
#247=AXIS2_PLACEMENT_3D('',#244,#245,#246);
#248=PLANE('',#247);
#249=CARTESIAN_POINT('',(-25.0,-4.000000000000004,-4.0));
#250=VERTEX_POINT('',#249);
#251=CARTESIAN_POINT('',(25.000000000000004,-4.000000000000004,-4.0));
#252=VERTEX_POINT('',#251);
#253=CARTESIAN_POINT('',(-24.999999999999996,-4.000000000000004,-4.0));
#254=DIRECTION('',(1.0,0.0,0.0));
#255=VECTOR('',#254,50.0);
#256=LINE('',#253,#255);
#257=EDGE_CURVE('',#250,#252,#256,.T.);
#258=ORIENTED_EDGE('',*,*,#257,.T.);
#259=CARTESIAN_POINT('',(25.000000000000004,-4.000000000000004,0.0));
#260=VERTEX_POINT('',#259);
#261=CARTESIAN_POINT('',(25.000000000000004,-4.000000000000004,0.0));
#262=DIRECTION('',(0.0,0.0,-1.0));
#263=VECTOR('',#262,4.0);
#264=LINE('',#261,#263);
#265=EDGE_CURVE('',#260,#252,#264,.T.);
#266=ORIENTED_EDGE('',*,*,#265,.F.);
#267=CARTESIAN_POINT('',(-25.0,-4.000000000000004,0.0));
#268=VERTEX_POINT('',#267);
#269=CARTESIAN_POINT('',(-25.0,-4.000000000000004,0.0));
#270=DIRECTION('',(1.0,0.0,0.0));
#271=VECTOR('',#270,50.000000000000007);
#272=LINE('',#269,#271);
#273=EDGE_CURVE('',#268,#260,#272,.T.);
#274=ORIENTED_EDGE('',*,*,#273,.F.);
#275=CARTESIAN_POINT('',(-25.0,-4.000000000000004,0.0));
#276=DIRECTION('',(0.0,0.0,-1.0));
#277=VECTOR('',#276,4.0);
#278=LINE('',#275,#277);
#279=EDGE_CURVE('',#268,#250,#278,.T.);
#280=ORIENTED_EDGE('',*,*,#279,.T.);
#281=EDGE_LOOP('',(#258,#266,#274,#280));
#282=FACE_OUTER_BOUND('',#281,.T.);
#283=ADVANCED_FACE('',(#282),#248,.T.);
#284=CARTESIAN_POINT('',(25.0,3.999999999999997,0.0));
#285=DIRECTION('',(0.0,1.0,0.0));
#286=DIRECTION('',(0.0,0.0,1.0));
#287=AXIS2_PLACEMENT_3D('',#284,#285,#286);
#288=PLANE('',#287);
#289=CARTESIAN_POINT('',(25.0,3.999999999999997,-4.0));
#290=VERTEX_POINT('',#289);
#291=CARTESIAN_POINT('',(-25.0,4.000000000000004,-4.0));
#292=VERTEX_POINT('',#291);
#293=CARTESIAN_POINT('',(25.0,3.999999999999997,-4.0));
#294=DIRECTION('',(-1.0,0.0,0.0));
#295=VECTOR('',#294,50.0);
#296=LINE('',#293,#295);
#297=EDGE_CURVE('',#290,#292,#296,.T.);
#298=ORIENTED_EDGE('',*,*,#297,.T.);
#299=CARTESIAN_POINT('',(-25.0,4.000000000000004,0.0));
#300=VERTEX_POINT('',#299);
#301=CARTESIAN_POINT('',(-25.0,4.000000000000004,0.0));
#302=DIRECTION('',(0.0,0.0,-1.0));
#303=VECTOR('',#302,4.0);
#304=LINE('',#301,#303);
#305=EDGE_CURVE('',#300,#292,#304,.T.);
#306=ORIENTED_EDGE('',*,*,#305,.F.);
#307=CARTESIAN_POINT('',(25.0,3.999999999999997,0.0));
#308=VERTEX_POINT('',#307);
#309=CARTESIAN_POINT('',(25.0,3.999999999999997,0.0));
#310=DIRECTION('',(-1.0,0.0,0.0));
#311=VECTOR('',#310,50.0);
#312=LINE('',#309,#311);
#313=EDGE_CURVE('',#308,#300,#312,.T.);
#314=ORIENTED_EDGE('',*,*,#313,.F.);
#315=CARTESIAN_POINT('',(25.0,3.999999999999997,0.0));
#316=DIRECTION('',(0.0,0.0,-1.0));
#317=VECTOR('',#316,4.0);
#318=LINE('',#315,#317);
#319=EDGE_CURVE('',#308,#290,#318,.T.);
#320=ORIENTED_EDGE('',*,*,#319,.T.);
#321=EDGE_LOOP('',(#298,#306,#314,#320));
#322=FACE_OUTER_BOUND('',#321,.T.);
#323=ADVANCED_FACE('',(#322),#288,.T.);
#324=CARTESIAN_POINT('',(0.0,-1.665335E-015,-4.0));
#325=DIRECTION('',(0.0,0.0,1.0));
#326=DIRECTION('',(1.0,0.0,0.0));
#327=AXIS2_PLACEMENT_3D('',#324,#325,#326);
#328=PLANE('',#327);
#329=CARTESIAN_POINT('',(-25.0,4.000000000000004,-4.0));
#330=DIRECTION('',(0.0,-1.0,0.0));
#331=VECTOR('',#330,8.000000000000007);
#332=LINE('',#329,#331);
#333=EDGE_CURVE('',#292,#250,#332,.T.);
#334=ORIENTED_EDGE('',*,*,#333,.F.);
#335=ORIENTED_EDGE('',*,*,#297,.F.);
#336=CARTESIAN_POINT('',(25.000000000000004,-4.000000000000004,-4.0));
#337=DIRECTION('',(0.0,1.0,0.0));
#338=VECTOR('',#337,8.0);
#339=LINE('',#336,#338);
#340=EDGE_CURVE('',#252,#290,#339,.T.);
#341=ORIENTED_EDGE('',*,*,#340,.F.);
#342=ORIENTED_EDGE('',*,*,#257,.F.);
#343=EDGE_LOOP('',(#334,#335,#341,#342));
#344=FACE_OUTER_BOUND('',#343,.T.);
#345=ORIENTED_EDGE('',*,*,#80,.T.);
#346=EDGE_LOOP('',(#345));
#347=FACE_BOUND('',#346,.T.);
#348=ADVANCED_FACE('',(#344,#347),#328,.F.);
#349=CARTESIAN_POINT('',(2.220446E-015,-4.799752E-015,0.0));
#350=DIRECTION('',(0.0,0.0,1.0));
#351=DIRECTION('',(1.0,0.0,0.0));
#352=AXIS2_PLACEMENT_3D('',#349,#350,#351);
#353=PLANE('',#352);
#354=ORIENTED_EDGE('',*,*,#273,.T.);
#355=CARTESIAN_POINT('',(25.000000000000007,-19.999999999999996,0.0));
#356=VERTEX_POINT('',#355);
#357=CARTESIAN_POINT('',(25.000000000000004,-4.000000000000007,0.0));
#358=DIRECTION('',(0.0,-1.0,0.0));
#359=VECTOR('',#358,15.999999999999989);
#360=LINE('',#357,#359);
#361=EDGE_CURVE('',#260,#356,#360,.T.);
#362=ORIENTED_EDGE('',*,*,#361,.T.);
#363=CARTESIAN_POINT('',(-24.999999999999996,-20.000000000000004,0.0));
#364=VERTEX_POINT('',#363);
#365=CARTESIAN_POINT('',(25.000000000000007,-19.999999999999996,0.0));
#366=DIRECTION('',(-1.0,0.0,0.0));
#367=VECTOR('',#366,50.0);
#368=LINE('',#365,#367);
#369=EDGE_CURVE('',#356,#364,#368,.T.);
#370=ORIENTED_EDGE('',*,*,#369,.T.);
#371=CARTESIAN_POINT('',(-24.999999999999996,-20.000000000000004,0.0));
#372=DIRECTION('',(0.0,1.0,0.0));
#373=VECTOR('',#372,16.0);
#374=LINE('',#371,#373);
#375=EDGE_CURVE('',#364,#268,#374,.T.);
#376=ORIENTED_EDGE('',*,*,#375,.T.);
#377=EDGE_LOOP('',(#354,#362,#370,#376));
#378=FACE_OUTER_BOUND('',#377,.T.);
#379=ADVANCED_FACE('',(#378),#353,.F.);
#380=CARTESIAN_POINT('',(2.220446E-015,-4.799752E-015,0.0));
#381=DIRECTION('',(0.0,0.0,1.0));
#382=DIRECTION('',(1.0,0.0,0.0));
#383=AXIS2_PLACEMENT_3D('',#380,#381,#382);
#384=PLANE('',#383);
#385=ORIENTED_EDGE('',*,*,#313,.T.);
#386=CARTESIAN_POINT('',(-25.000000000000004,19.999999999999986,0.0));
#387=VERTEX_POINT('',#386);
#388=CARTESIAN_POINT('',(-25.000000000000004,4.000000000000004,0.0));
#389=DIRECTION('',(0.0,1.0,0.0));
#390=VECTOR('',#389,15.999999999999986);
#391=LINE('',#388,#390);
#392=EDGE_CURVE('',#300,#387,#391,.T.);
#393=ORIENTED_EDGE('',*,*,#392,.T.);
#394=CARTESIAN_POINT('',(24.999999999999996,19.999999999999996,0.0));
#395=VERTEX_POINT('',#394);
#396=CARTESIAN_POINT('',(-25.000000000000004,19.999999999999986,0.0));
#397=DIRECTION('',(1.0,0.0,0.0));
#398=VECTOR('',#397,50.0);
#399=LINE('',#396,#398);
#400=EDGE_CURVE('',#387,#395,#399,.T.);
#401=ORIENTED_EDGE('',*,*,#400,.T.);
#402=CARTESIAN_POINT('',(24.999999999999996,19.999999999999996,0.0));
#403=DIRECTION('',(0.0,-1.0,0.0));
#404=VECTOR('',#403,16.0);
#405=LINE('',#402,#404);
#406=EDGE_CURVE('',#395,#308,#405,.T.);
#407=ORIENTED_EDGE('',*,*,#406,.T.);
#408=EDGE_LOOP('',(#385,#393,#401,#407));
#409=FACE_OUTER_BOUND('',#408,.T.);
#410=ADVANCED_FACE('',(#409),#384,.F.);
#411=CARTESIAN_POINT('',(-24.999999999999996,-20.000000000000004,0.0));
#412=DIRECTION('',(-1.0,0.0,0.0));
#413=DIRECTION('',(0.0,0.0,1.0));
#414=AXIS2_PLACEMENT_3D('',#411,#412,#413);
#415=PLANE('',#414);
#416=CARTESIAN_POINT('',(-24.999999999999996,-20.000000000000004,16.0));
#417=VERTEX_POINT('',#416);
#418=CARTESIAN_POINT('',(-25.000000000000004,19.999999999999986,16.0));
#419=VERTEX_POINT('',#418);
#420=CARTESIAN_POINT('',(-24.999999999999996,-20.000000000000004,16.0));
#421=DIRECTION('',(0.0,1.0,0.0));
#422=VECTOR('',#421,39.999999999999993);
#423=LINE('',#420,#422);
#424=EDGE_CURVE('',#417,#419,#423,.T.);
#425=ORIENTED_EDGE('',*,*,#424,.T.);
#426=CARTESIAN_POINT('',(-25.000000000000004,19.999999999999986,0.0));
#427=DIRECTION('',(0.0,0.0,1.0));
#428=VECTOR('',#427,16.0);
#429=LINE('',#426,#428);
#430=EDGE_CURVE('',#387,#419,#429,.T.);
#431=ORIENTED_EDGE('',*,*,#430,.F.);
#432=ORIENTED_EDGE('',*,*,#392,.F.);
#433=ORIENTED_EDGE('',*,*,#305,.T.);
#434=ORIENTED_EDGE('',*,*,#333,.T.);
#435=ORIENTED_EDGE('',*,*,#279,.F.);
#436=ORIENTED_EDGE('',*,*,#375,.F.);
#437=CARTESIAN_POINT('',(-24.999999999999996,-20.000000000000004,0.0));
#438=DIRECTION('',(0.0,0.0,1.0));
#439=VECTOR('',#438,16.0);
#440=LINE('',#437,#439);
#441=EDGE_CURVE('',#364,#417,#440,.T.);
#442=ORIENTED_EDGE('',*,*,#441,.T.);
#443=EDGE_LOOP('',(#425,#431,#432,#433,#434,#435,#436,#442));
#444=FACE_OUTER_BOUND('',#443,.T.);
#445=ORIENTED_EDGE('',*,*,#119,.T.);
#446=EDGE_LOOP('',(#445));
#447=FACE_BOUND('',#446,.T.);
#448=ORIENTED_EDGE('',*,*,#156,.T.);
#449=EDGE_LOOP('',(#448));
#450=FACE_BOUND('',#449,.T.);
#451=ADVANCED_FACE('',(#444,#447,#450),#415,.T.);
#452=CARTESIAN_POINT('',(-25.000000000000004,19.999999999999986,0.0));
#453=DIRECTION('',(0.0,1.0,0.0));
#454=DIRECTION('',(0.0,0.0,1.0));
#455=AXIS2_PLACEMENT_3D('',#452,#453,#454);
#456=PLANE('',#455);
#457=CARTESIAN_POINT('',(24.999999999999996,19.999999999999996,16.0));
#458=VERTEX_POINT('',#457);
#459=CARTESIAN_POINT('',(-25.000000000000004,19.999999999999986,16.0));
#460=DIRECTION('',(1.0,0.0,0.0));
#461=VECTOR('',#460,50.0);
#462=LINE('',#459,#461);
#463=EDGE_CURVE('',#419,#458,#462,.T.);
#464=ORIENTED_EDGE('',*,*,#463,.T.);
#465=CARTESIAN_POINT('',(24.999999999999996,19.999999999999996,0.0));
#466=DIRECTION('',(0.0,0.0,1.0));
#467=VECTOR('',#466,16.0);
#468=LINE('',#465,#467);
#469=EDGE_CURVE('',#395,#458,#468,.T.);
#470=ORIENTED_EDGE('',*,*,#469,.F.);
#471=ORIENTED_EDGE('',*,*,#400,.F.);
#472=ORIENTED_EDGE('',*,*,#430,.T.);
#473=EDGE_LOOP('',(#464,#470,#471,#472));
#474=FACE_OUTER_BOUND('',#473,.T.);
#475=ADVANCED_FACE('',(#474),#456,.T.);
#476=CARTESIAN_POINT('',(24.999999999999996,19.999999999999996,0.0));
#477=DIRECTION('',(1.0,0.0,0.0));
#478=DIRECTION('',(0.0,0.0,-1.0));
#479=AXIS2_PLACEMENT_3D('',#476,#477,#478);
#480=PLANE('',#479);
#481=CARTESIAN_POINT('',(25.000000000000007,-19.999999999999996,16.0));
#482=VERTEX_POINT('',#481);
#483=CARTESIAN_POINT('',(24.999999999999996,19.999999999999996,16.0));
#484=DIRECTION('',(0.0,-1.0,0.0));
#485=VECTOR('',#484,39.999999999999993);
#486=LINE('',#483,#485);
#487=EDGE_CURVE('',#458,#482,#486,.T.);
#488=ORIENTED_EDGE('',*,*,#487,.T.);
#489=CARTESIAN_POINT('',(25.000000000000007,-19.999999999999996,0.0));
#490=DIRECTION('',(0.0,0.0,1.0));
#491=VECTOR('',#490,16.0);
#492=LINE('',#489,#491);
#493=EDGE_CURVE('',#356,#482,#492,.T.);
#494=ORIENTED_EDGE('',*,*,#493,.F.);
#495=ORIENTED_EDGE('',*,*,#361,.F.);
#496=ORIENTED_EDGE('',*,*,#265,.T.);
#497=ORIENTED_EDGE('',*,*,#340,.T.);
#498=ORIENTED_EDGE('',*,*,#319,.F.);
#499=ORIENTED_EDGE('',*,*,#406,.F.);
#500=ORIENTED_EDGE('',*,*,#469,.T.);
#501=EDGE_LOOP('',(#488,#494,#495,#496,#497,#498,#499,#500));
#502=FACE_OUTER_BOUND('',#501,.T.);
#503=ORIENTED_EDGE('',*,*,#193,.T.);
#504=EDGE_LOOP('',(#503));
#505=FACE_BOUND('',#504,.T.);
#506=ORIENTED_EDGE('',*,*,#230,.T.);
#507=EDGE_LOOP('',(#506));
#508=FACE_BOUND('',#507,.T.);
#509=ADVANCED_FACE('',(#502,#505,#508),#480,.T.);
#510=CARTESIAN_POINT('',(25.000000000000007,-19.999999999999996,0.0));
#511=DIRECTION('',(0.0,-1.0,0.0));
#512=DIRECTION('',(0.0,0.0,-1.0));
#513=AXIS2_PLACEMENT_3D('',#510,#511,#512);
#514=PLANE('',#513);
#515=CARTESIAN_POINT('',(25.000000000000007,-19.999999999999996,16.0));
#516=DIRECTION('',(-1.0,0.0,0.0));
#517=VECTOR('',#516,50.0);
#518=LINE('',#515,#517);
#519=EDGE_CURVE('',#482,#417,#518,.T.);
#520=ORIENTED_EDGE('',*,*,#519,.T.);
#521=ORIENTED_EDGE('',*,*,#441,.F.);
#522=ORIENTED_EDGE('',*,*,#369,.F.);
#523=ORIENTED_EDGE('',*,*,#493,.T.);
#524=EDGE_LOOP('',(#520,#521,#522,#523));
#525=FACE_OUTER_BOUND('',#524,.T.);
#526=ADVANCED_FACE('',(#525),#514,.T.);
#527=CARTESIAN_POINT('',(2.220446E-015,-4.194176E-015,16.0));
#528=DIRECTION('',(0.0,0.0,1.0));
#529=DIRECTION('',(1.0,0.0,0.0));
#530=AXIS2_PLACEMENT_3D('',#527,#528,#529);
#531=PLANE('',#530);
#532=ORIENTED_EDGE('',*,*,#424,.F.);
#533=ORIENTED_EDGE('',*,*,#519,.F.);
#534=ORIENTED_EDGE('',*,*,#487,.F.);
#535=ORIENTED_EDGE('',*,*,#463,.F.);
#536=EDGE_LOOP('',(#532,#533,#534,#535));
#537=FACE_OUTER_BOUND('',#536,.T.);
#538=ORIENTED_EDGE('',*,*,#91,.T.);
#539=EDGE_LOOP('',(#538));
#540=FACE_BOUND('',#539,.T.);
#541=ADVANCED_FACE('',(#537,#540),#531,.T.);
#542=CLOSED_SHELL('',(#95,#123,#132,#160,#169,#197,#206,#234,#243,#283,#323,#348,#379,#410,#451,#475,#509,#526,#541));
#543=MANIFOLD_SOLID_BREP('Solide1',#542);
#544=COLOUR_RGB('',0.0,1.0,1.0);
#545=FILL_AREA_STYLE_COLOUR('',#544);
#546=FILL_AREA_STYLE('',(#545));
#547=SURFACE_STYLE_FILL_AREA(#546);
#548=SURFACE_SIDE_STYLE('',(#547));
#549=SURFACE_STYLE_USAGE(.BOTH.,#548);
#550=PRESENTATION_STYLE_ASSIGNMENT((#549));
#551=STYLED_ITEM('',(#550),#95);
#552=STYLED_ITEM('',(#550),#283);
#553=STYLED_ITEM('',(#550),#323);
#554=STYLED_ITEM('',(#550),#348);
#555=STYLED_ITEM('',(#550),#379);
#556=STYLED_ITEM('',(#550),#410);
#557=STYLED_ITEM('',(#550),#451);
#558=STYLED_ITEM('',(#550),#475);
#559=STYLED_ITEM('',(#550),#509);
#560=STYLED_ITEM('',(#550),#526);
#561=STYLED_ITEM('',(#550),#541);
#562=MECHANICAL_DESIGN_GEOMETRIC_PRESENTATION_REPRESENTATION('',(#551,#552,#553,#554,#555,#556,#557,#558,#559,#560,#561,#570),#67);
#563=COLOUR_RGB('M\X2\FFFD\X0\tal-AL-6061 (opaque)',0.847059011459351,0.839215993881226,0.839215993881226);
#564=FILL_AREA_STYLE_COLOUR('M\X2\FFFD\X0\tal-AL-6061 (opaque)',#563);
#565=FILL_AREA_STYLE('M\X2\FFFD\X0\tal-AL-6061 (opaque)',(#564));
#566=SURFACE_STYLE_FILL_AREA(#565);
#567=SURFACE_SIDE_STYLE('M\X2\FFFD\X0\tal-AL-6061 (opaque)',(#566));
#568=SURFACE_STYLE_USAGE(.BOTH.,#567);
#569=PRESENTATION_STYLE_ASSIGNMENT((#568));
#570=STYLED_ITEM('',(#569),#543);
#571=ADVANCED_BREP_SHAPE_REPRESENTATION('ABSR',(#543),#36);
#572=SHAPE_REPRESENTATION_RELATIONSHIP('SRR','None',#571,#41);
ENDSEC;
END-ISO-10303-21;
