ISO-10303-21;
HEADER;
FILE_DESCRIPTION (( 'STEP AP214' ),
    '1' );
FILE_NAME ('Axe fileté M12 B_Structure.STEP',
    '2023-09-14T12:51:23',
    ( '' ),
    ( '' ),
    'SwSTEP 2.0',
    'SolidWorks 2023',
    '' );
FILE_SCHEMA (( 'AUTOMOTIVE_DESIGN' ));
ENDSEC;

DATA;
#1 =( NAMED_UNIT ( * ) SI_UNIT ( $, .STERADIAN. ) SOLID_ANGLE_UNIT ( ) );
#2 = AXIS2_PLACEMENT_3D ( 'NONE', #207, #16, #20 ) ;
#3 = EDGE_CURVE ( 'NONE', #181, #108, #237, .T. ) ;
#4 = CARTESIAN_POINT ( 'NONE',  ( 0.000000000000000000, 0.000000000000000000, 185.0000000000000000 ) ) ;
#5 = ORIENTED_EDGE ( 'NONE', *, *, #225, .T. ) ;
#6 = VERTEX_POINT ( 'NONE', #19 ) ;
#7 =( GEOMETRIC_REPRESENTATION_CONTEXT ( 3 ) GLOBAL_UNCERTAINTY_ASSIGNED_CONTEXT ( ( #156 ) ) GLOBAL_UNIT_ASSIGNED_CONTEXT ( ( #192, #305, #170 ) ) REPRESENTATION_CONTEXT ( 'NONE', 'WORKASPACE' ) );
#8 = ORIENTED_EDGE ( 'NONE', *, *, #62, .T. ) ;
#9 = ORIENTED_EDGE ( 'NONE', *, *, #161, .T. ) ;
#10 = DIRECTION ( 'NONE',  ( -0.000000000000000000, -0.000000000000000000, -1.000000000000000000 ) ) ;
#11 = CIRCLE ( 'NONE', #231, 6.000000000000000888 ) ;
#12 = EDGE_CURVE ( 'NONE', #199, #181, #45, .T. ) ;
#13 = FACE_OUTER_BOUND ( 'NONE', #179, .T. ) ;
#14 = FACE_OUTER_BOUND ( 'NONE', #248, .T. ) ;
#15 = CARTESIAN_POINT ( 'NONE',  ( 0.000000000000000000, 0.000000000000000000, 0.000000000000000000 ) ) ;
#16 = DIRECTION ( 'NONE',  ( -0.000000000000000000, 0.000000000000000000, -1.000000000000000000 ) ) ;
#17 = DIRECTION ( 'NONE',  ( -1.000000000000000000, 0.000000000000000000, 0.000000000000000000 ) ) ;
#18 = DIRECTION ( 'NONE',  ( 0.000000000000000000, 0.000000000000000000, 1.000000000000000000 ) ) ;
#19 = CARTESIAN_POINT ( 'NONE',  ( 4.049999999999999822, 0.000000000000000000, 167.0000000000000000 ) ) ;
#20 = DIRECTION ( 'NONE',  ( -1.000000000000000000, 0.000000000000000000, 0.000000000000000000 ) ) ;
#21 = CARTESIAN_POINT ( 'NONE',  ( 0.000000000000000000, 0.000000000000000000, 167.0000000000000000 ) ) ;
#22 =( LENGTH_UNIT ( ) NAMED_UNIT ( * ) SI_UNIT ( .MILLI., .METRE. ) );
#23 = ADVANCED_BREP_SHAPE_REPRESENTATION ( 'Axe filet\X2\00e9\X0\ M12 B_Structure', ( #149, #290 ), #80 ) ;
#24 = SURFACE_STYLE_FILL_AREA ( #280 ) ;
#25 =( NAMED_UNIT ( * ) PLANE_ANGLE_UNIT ( ) SI_UNIT ( $, .RADIAN. ) );
#26 = ADVANCED_FACE ( 'NONE', ( #214 ), #297, .F. ) ;
#27 = VECTOR ( 'NONE', #165, 1000.000000000000000 ) ;
#28 = CIRCLE ( 'NONE', #164, 4.049999999999999822 ) ;
#29 = ORIENTED_EDGE ( 'NONE', *, *, #167, .T. ) ;
#30 = ORIENTED_EDGE ( 'NONE', *, *, #86, .F. ) ;
#31 = ORIENTED_EDGE ( 'NONE', *, *, #242, .F. ) ;
#32 = PRODUCT_DEFINITION_CONTEXT ( 'detailed design', #154, 'design' ) ;
#33 = VECTOR ( 'NONE', #206, 1000.000000000000114 ) ;
#34 = ORIENTED_EDGE ( 'NONE', *, *, #69, .F. ) ;
#35 = PRODUCT_DEFINITION_FORMATION_WITH_SPECIFIED_SOURCE ( 'ANY', '', #48, .NOT_KNOWN. ) ;
#36 = ORIENTED_EDGE ( 'NONE', *, *, #150, .F. ) ;
#37 = DIRECTION ( 'NONE',  ( 0.000000000000000000, 0.000000000000000000, 1.000000000000000000 ) ) ;
#38 = EDGE_CURVE ( 'NONE', #108, #253, #11, .T. ) ;
#39 = DIRECTION ( 'NONE',  ( 1.000000000000000000, 0.000000000000000000, 0.000000000000000000 ) ) ;
#40 = CARTESIAN_POINT ( 'NONE',  ( 0.000000000000000000, 0.000000000000000000, 185.0000000000000000 ) ) ;
#41 = CONICAL_SURFACE ( 'NONE', #260, 6.000000000000000888, 0.7853981633974596033 ) ;
#42 = CARTESIAN_POINT ( 'NONE',  ( -5.000000000000031974, 0.000000000000000000, 185.0000000000000000 ) ) ;
#43 = DIRECTION ( 'NONE',  ( 1.000000000000000000, 0.000000000000000000, 0.000000000000000000 ) ) ;
#44 = CARTESIAN_POINT ( 'NONE',  ( 6.000000000000000888, 7.347880794884120722E-16, 0.9999999999999731326 ) ) ;
#45 = LINE ( 'NONE', #233, #194 ) ;
#46 = FACE_OUTER_BOUND ( 'NONE', #85, .T. ) ;
#47 = CARTESIAN_POINT ( 'NONE',  ( 5.000000000000005329, 0.000000000000000000, 0.000000000000000000 ) ) ;
#48 = PRODUCT ( 'Axe filet\X2\00e9\X0\ M12 B_Structure', 'Axe filet\X2\00e9\X0\ M12 B_Structure', '', ( #195 ) ) ;
#49 = AXIS2_PLACEMENT_3D ( 'NONE', #15, #10, #294 ) ;
#50 = DIRECTION ( 'NONE',  ( 1.000000000000000000, 0.000000000000000000, 0.000000000000000000 ) ) ;
#51 = DIRECTION ( 'NONE',  ( -0.000000000000000000, 0.000000000000000000, -1.000000000000000000 ) ) ;
#52 = DIRECTION ( 'NONE',  ( 0.000000000000000000, 0.000000000000000000, 1.000000000000000000 ) ) ;
#53 = CIRCLE ( 'NONE', #227, 4.049999999999999822 ) ;
#54 = EDGE_LOOP ( 'NONE', ( #60, #200, #127, #88 ) ) ;
#55 = AXIS2_PLACEMENT_3D ( 'NONE', #71, #235, #43 ) ;
#56 = ORIENTED_EDGE ( 'NONE', *, *, #281, .F. ) ;
#57 = APPLICATION_CONTEXT ( 'automotive_design' ) ;
#58 = VERTEX_POINT ( 'NONE', #271 ) ;
#59 = EDGE_CURVE ( 'NONE', #129, #108, #114, .T. ) ;
#60 = ORIENTED_EDGE ( 'NONE', *, *, #118, .F. ) ;
#61 = ORIENTED_EDGE ( 'NONE', *, *, #3, .T. ) ;
#62 = EDGE_CURVE ( 'NONE', #104, #253, #66, .T. ) ;
#63 = CARTESIAN_POINT ( 'NONE',  ( 0.000000000000000000, 0.000000000000000000, 0.9999999999999731326 ) ) ;
#64 = CARTESIAN_POINT ( 'NONE',  ( 0.000000000000000000, 0.000000000000000000, 185.0000000000000000 ) ) ;
#65 = CARTESIAN_POINT ( 'NONE',  ( 0.000000000000000000, 0.000000000000000000, 167.0000000000000000 ) ) ;
#66 = LINE ( 'NONE', #270, #182 ) ;
#67 = CLOSED_SHELL ( 'NONE', ( #74, #99, #26, #216, #296, #107, #113, #203, #197, #304, #236 ) ) ;
#68 = DIRECTION ( 'NONE',  ( 0.000000000000000000, 0.000000000000000000, 1.000000000000000000 ) ) ;
#69 = EDGE_CURVE ( 'NONE', #129, #104, #157, .T. ) ;
#70 = DIRECTION ( 'NONE',  ( 0.000000000000000000, 0.000000000000000000, -1.000000000000000000 ) ) ;
#71 = CARTESIAN_POINT ( 'NONE',  ( 0.000000000000000000, 0.000000000000000000, 167.0000000000000000 ) ) ;
#72 = VECTOR ( 'NONE', #98, 1000.000000000000000 ) ;
#73 = DIRECTION ( 'NONE',  ( -1.000000000000000000, 0.000000000000000000, 0.000000000000000000 ) ) ;
#74 = ADVANCED_FACE ( 'NONE', ( #93 ), #212, .T. ) ;
#75 = LINE ( 'NONE', #172, #79 ) ;
#76 = CARTESIAN_POINT ( 'NONE',  ( 4.049999999999999822, 0.000000000000000000, 185.0000000000000000 ) ) ;
#77 = PRODUCT_DEFINITION ( 'UNKNOWN', '', #35, #32 ) ;
#78 = CARTESIAN_POINT ( 'NONE',  ( 0.000000000000000000, 0.000000000000000000, 167.0000000000000000 ) ) ;
#79 = VECTOR ( 'NONE', #262, 1000.000000000000000 ) ;
#80 =( GEOMETRIC_REPRESENTATION_CONTEXT ( 3 ) GLOBAL_UNCERTAINTY_ASSIGNED_CONTEXT ( ( #286 ) ) GLOBAL_UNIT_ASSIGNED_CONTEXT ( ( #22, #25, #1 ) ) REPRESENTATION_CONTEXT ( 'NONE', 'WORKASPACE' ) );
#81 = EDGE_LOOP ( 'NONE', ( #84, #224, #61, #228 ) ) ;
#82 = PRODUCT_RELATED_PRODUCT_CATEGORY ( 'part', '', ( #48 ) ) ;
#83 = ORIENTED_EDGE ( 'NONE', *, *, #273, .F. ) ;
#84 = ORIENTED_EDGE ( 'NONE', *, *, #161, .F. ) ;
#85 = EDGE_LOOP ( 'NONE', ( #5, #9, #29, #173 ) ) ;
#86 = EDGE_CURVE ( 'NONE', #145, #58, #265, .T. ) ;
#87 = AXIS2_PLACEMENT_3D ( 'NONE', #162, #209, #137 ) ;
#88 = ORIENTED_EDGE ( 'NONE', *, *, #12, .F. ) ;
#89 = PLANE ( 'NONE',  #146 ) ;
#90 = CARTESIAN_POINT ( 'NONE',  ( -6.000000000000000888, 0.000000000000000000, 184.0000000000000000 ) ) ;
#91 = PLANE ( 'NONE',  #128 ) ;
#92 = DIRECTION ( 'NONE',  ( -1.000000000000000000, 0.000000000000000000, 0.000000000000000000 ) ) ;
#93 = FACE_OUTER_BOUND ( 'NONE', #54, .T. ) ;
#94 = CIRCLE ( 'NONE', #124, 5.000000000000031974 ) ;
#95 = FACE_OUTER_BOUND ( 'NONE', #249, .T. ) ;
#96 = DIRECTION ( 'NONE',  ( 1.000000000000000000, 0.000000000000000000, 0.000000000000000000 ) ) ;
#97 = CARTESIAN_POINT ( 'NONE',  ( 5.000000000000031974, 6.735557395310462731E-16, 185.0000000000000000 ) ) ;
#98 = DIRECTION ( 'NONE',  ( -0.000000000000000000, 0.000000000000000000, -1.000000000000000000 ) ) ;
#99 = ADVANCED_FACE ( 'NONE', ( #14 ), #41, .T. ) ;
#100 = AXIS2_PLACEMENT_3D ( 'NONE', #138, #18, #135 ) ;
#101 = DIRECTION ( 'NONE',  ( 1.000000000000000000, 0.000000000000000000, 0.000000000000000000 ) ) ;
#102 = EDGE_CURVE ( 'NONE', #180, #155, #117, .T. ) ;
#103 = ORIENTED_EDGE ( 'NONE', *, *, #102, .F. ) ;
#104 = VERTEX_POINT ( 'NONE', #47 ) ;
#105 = EDGE_LOOP ( 'NONE', ( #229, #266 ) ) ;
#106 = ORIENTED_EDGE ( 'NONE', *, *, #150, .T. ) ;
#107 = ADVANCED_FACE ( 'NONE', ( #131, #190 ), #91, .T. ) ;
#108 = VERTEX_POINT ( 'NONE', #230 ) ;
#109 = AXIS2_PLACEMENT_3D ( 'NONE', #293, #70, #92 ) ;
#110 = CARTESIAN_POINT ( 'NONE',  ( -6.000000000000000888, 0.000000000000000000, 185.0000000000000000 ) ) ;
#111 = DIRECTION ( 'NONE',  ( 1.000000000000000000, 0.000000000000000000, 0.000000000000000000 ) ) ;
#112 = DIRECTION ( 'NONE',  ( 1.000000000000000000, 0.000000000000000000, 0.000000000000000000 ) ) ;
#113 = ADVANCED_FACE ( 'NONE', ( #168 ), #89, .F. ) ;
#114 = LINE ( 'NONE', #295, #33 ) ;
#115 = DIRECTION ( 'NONE',  ( 0.000000000000000000, 0.000000000000000000, 1.000000000000000000 ) ) ;
#116 = AXIS2_PLACEMENT_3D ( 'NONE', #65, #298, #238 ) ;
#117 = LINE ( 'NONE', #208, #239 ) ;
#118 = EDGE_CURVE ( 'NONE', #180, #199, #176, .T. ) ;
#119 = DIRECTION ( 'NONE',  ( 0.000000000000000000, 0.000000000000000000, 1.000000000000000000 ) ) ;
#120 = CIRCLE ( 'NONE', #175, 6.000000000000000888 ) ;
#121 = FILL_AREA_STYLE_COLOUR ( '', #263 ) ;
#122 = DIRECTION ( 'NONE',  ( 0.000000000000000000, 0.000000000000000000, 1.000000000000000000 ) ) ;
#123 = EDGE_CURVE ( 'NONE', #104, #129, #284, .T. ) ;
#124 = AXIS2_PLACEMENT_3D ( 'NONE', #136, #279, #219 ) ;
#125 = EDGE_CURVE ( 'NONE', #199, #180, #94, .T. ) ;
#126 = PRODUCT_DEFINITION_SHAPE ( 'NONE', 'NONE',  #77 ) ;
#127 = ORIENTED_EDGE ( 'NONE', *, *, #225, .F. ) ;
#128 = AXIS2_PLACEMENT_3D ( 'NONE', #64, #254, #277 ) ;
#129 = VERTEX_POINT ( 'NONE', #142 ) ;
#130 = EDGE_LOOP ( 'NONE', ( #264, #246 ) ) ;
#131 = FACE_OUTER_BOUND ( 'NONE', #130, .T. ) ;
#132 = AXIS2_PLACEMENT_3D ( 'NONE', #40, #166, #111 ) ;
#133 = ORIENTED_EDGE ( 'NONE', *, *, #38, .F. ) ;
#134 = DIRECTION ( 'NONE',  ( 1.000000000000000000, 0.000000000000000000, 0.000000000000000000 ) ) ;
#135 = DIRECTION ( 'NONE',  ( 1.000000000000000000, 0.000000000000000000, 0.000000000000000000 ) ) ;
#136 = CARTESIAN_POINT ( 'NONE',  ( 0.000000000000000000, 0.000000000000000000, 185.0000000000000000 ) ) ;
#137 = DIRECTION ( 'NONE',  ( 1.000000000000000000, 0.000000000000000000, 0.000000000000000000 ) ) ;
#138 = CARTESIAN_POINT ( 'NONE',  ( 0.000000000000000000, 0.000000000000000000, 185.0000000000000000 ) ) ;
#139 = AXIS2_PLACEMENT_3D ( 'NONE', #255, #169, #39 ) ;
#140 = CYLINDRICAL_SURFACE ( 'NONE', #2, 6.000000000000000888 ) ;
#141 = CYLINDRICAL_SURFACE ( 'NONE', #205, 6.000000000000000888 ) ;
#142 = CARTESIAN_POINT ( 'NONE',  ( -5.000000000000005329, 6.735557395310446954E-16, 0.000000000000000000 ) ) ;
#143 = APPLICATION_PROTOCOL_DEFINITION ( 'draft international standard', 'automotive_design', 1998, #57 ) ;
#144 = CARTESIAN_POINT ( 'NONE',  ( 0.000000000000000000, 0.000000000000000000, 184.0000000000000000 ) ) ;
#145 = VERTEX_POINT ( 'NONE', #76 ) ;
#146 = AXIS2_PLACEMENT_3D ( 'NONE', #184, #68, #256 ) ;
#147 = DIRECTION ( 'NONE',  ( 0.000000000000000000, 0.000000000000000000, 1.000000000000000000 ) ) ;
#148 = SHAPE_DEFINITION_REPRESENTATION ( #126, #23 ) ;
#149 = MANIFOLD_SOLID_BREP ( 'Chanfrein1', #67 ) ;
#150 = EDGE_CURVE ( 'NONE', #6, #151, #53, .T. ) ;
#151 = VERTEX_POINT ( 'NONE', #299 ) ;
#152 = CIRCLE ( 'NONE', #269, 6.000000000000000888 ) ;
#153 = ORIENTED_EDGE ( 'NONE', *, *, #281, .T. ) ;
#154 = APPLICATION_CONTEXT ( 'automotive_design' ) ;
#155 = VERTEX_POINT ( 'NONE', #193 ) ;
#156 = UNCERTAINTY_MEASURE_WITH_UNIT (LENGTH_MEASURE( 1.000000000000000082E-05 ), #192, 'distance_accuracy_value', 'NONE');
#157 = CIRCLE ( 'NONE', #49, 5.000000000000005329 ) ;
#158 = ORIENTED_EDGE ( 'NONE', *, *, #62, .F. ) ;
#159 = DIRECTION ( 'NONE',  ( 0.7071067811865362485, 8.659560562354794808E-17, -0.7071067811865587860 ) ) ;
#160 = DIRECTION ( 'NONE',  ( 0.000000000000000000, 0.000000000000000000, 1.000000000000000000 ) ) ;
#161 = EDGE_CURVE ( 'NONE', #155, #253, #75, .T. ) ;
#162 = CARTESIAN_POINT ( 'NONE',  ( 0.000000000000000000, 0.000000000000000000, 184.0000000000000000 ) ) ;
#163 = DIRECTION ( 'NONE',  ( 0.000000000000000000, 0.000000000000000000, -1.000000000000000000 ) ) ;
#164 = AXIS2_PLACEMENT_3D ( 'NONE', #78, #303, #101 ) ;
#165 = DIRECTION ( 'NONE',  ( 0.000000000000000000, 0.000000000000000000, 1.000000000000000000 ) ) ;
#166 = DIRECTION ( 'NONE',  ( 0.000000000000000000, 0.000000000000000000, 1.000000000000000000 ) ) ;
#167 = EDGE_CURVE ( 'NONE', #253, #108, #120, .T. ) ;
#168 = FACE_OUTER_BOUND ( 'NONE', #105, .T. ) ;
#169 = DIRECTION ( 'NONE',  ( 0.000000000000000000, 0.000000000000000000, 1.000000000000000000 ) ) ;
#170 =( NAMED_UNIT ( * ) SI_UNIT ( $, .STERADIAN. ) SOLID_ANGLE_UNIT ( ) );
#171 = DIRECTION ( 'NONE',  ( 0.000000000000000000, 0.000000000000000000, 1.000000000000000000 ) ) ;
#172 = CARTESIAN_POINT ( 'NONE',  ( 6.000000000000000888, 7.347880794884120722E-16, 185.0000000000000000 ) ) ;
#173 = ORIENTED_EDGE ( 'NONE', *, *, #3, .F. ) ;
#174 = EDGE_CURVE ( 'NONE', #155, #181, #152, .T. ) ;
#175 = AXIS2_PLACEMENT_3D ( 'NONE', #261, #52, #243 ) ;
#176 = CIRCLE ( 'NONE', #132, 5.000000000000031974 ) ;
#177 = CARTESIAN_POINT ( 'NONE',  ( 0.000000000000000000, 0.000000000000000000, 0.000000000000000000 ) ) ;
#178 = APPLICATION_PROTOCOL_DEFINITION ( 'draft international standard', 'automotive_design', 1998, #154 ) ;
#179 = EDGE_LOOP ( 'NONE', ( #31, #36, #282, #285 ) ) ;
#180 = VERTEX_POINT ( 'NONE', #97 ) ;
#181 = VERTEX_POINT ( 'NONE', #90 ) ;
#182 = VECTOR ( 'NONE', #240, 1000.000000000000114 ) ;
#183 = EDGE_LOOP ( 'NONE', ( #30, #83 ) ) ;
#184 = CARTESIAN_POINT ( 'NONE',  ( 0.000000000000000000, 0.000000000000000000, 0.000000000000000000 ) ) ;
#185 = CARTESIAN_POINT ( 'NONE',  ( 0.000000000000000000, 0.000000000000000000, 0.000000000000000000 ) ) ;
#186 = LINE ( 'NONE', #275, #27 ) ;
#187 = CARTESIAN_POINT ( 'NONE',  ( 0.000000000000000000, 0.000000000000000000, 185.0000000000000000 ) ) ;
#188 = CONICAL_SURFACE ( 'NONE', #252, 6.000000000000000888, 0.7853981633974596033 ) ;
#189 = CARTESIAN_POINT ( 'NONE',  ( 4.049999999999999822, 0.000000000000000000, 167.0000000000000000 ) ) ;
#190 = FACE_BOUND ( 'NONE', #183, .T. ) ;
#191 = PLANE ( 'NONE',  #116 ) ;
#192 =( LENGTH_UNIT ( ) NAMED_UNIT ( * ) SI_UNIT ( .MILLI., .METRE. ) );
#193 = CARTESIAN_POINT ( 'NONE',  ( 6.000000000000000888, 7.347880794884120722E-16, 184.0000000000000000 ) ) ;
#194 = VECTOR ( 'NONE', #292, 1000.000000000000114 ) ;
#195 = PRODUCT_CONTEXT ( 'NONE', #57, 'mechanical' ) ;
#196 = AXIS2_PLACEMENT_3D ( 'NONE', #187, #163, #17 ) ;
#197 = ADVANCED_FACE ( 'NONE', ( #232 ), #191, .T. ) ;
#198 = CIRCLE ( 'NONE', #100, 4.049999999999999822 ) ;
#199 = VERTEX_POINT ( 'NONE', #42 ) ;
#200 = ORIENTED_EDGE ( 'NONE', *, *, #102, .T. ) ;
#201 = ORIENTED_EDGE ( 'NONE', *, *, #242, .T. ) ;
#202 = ORIENTED_EDGE ( 'NONE', *, *, #123, .F. ) ;
#203 = ADVANCED_FACE ( 'NONE', ( #13 ), #234, .F. ) ;
#204 = CONICAL_SURFACE ( 'NONE', #109, 5.000000000000031974, 0.7853981633974322918 ) ;
#205 = AXIS2_PLACEMENT_3D ( 'NONE', #4, #51, #73 ) ;
#206 = DIRECTION ( 'NONE',  ( -0.7071067811865555663, 8.659560562355030233E-17, 0.7071067811865394681 ) ) ;
#207 = CARTESIAN_POINT ( 'NONE',  ( 0.000000000000000000, 0.000000000000000000, 185.0000000000000000 ) ) ;
#208 = CARTESIAN_POINT ( 'NONE',  ( 5.000000000000031974, 6.123233995736805725E-16, 185.0000000000000000 ) ) ;
#209 = DIRECTION ( 'NONE',  ( -0.000000000000000000, -0.000000000000000000, -1.000000000000000000 ) ) ;
#210 = ORIENTED_EDGE ( 'NONE', *, *, #59, .F. ) ;
#211 = LINE ( 'NONE', #189, #217 ) ;
#212 = CONICAL_SURFACE ( 'NONE', #196, 5.000000000000031974, 0.7853981633974322918 ) ;
#213 = CARTESIAN_POINT ( 'NONE',  ( 0.000000000000000000, 0.000000000000000000, 0.9999999999999731326 ) ) ;
#214 = FACE_OUTER_BOUND ( 'NONE', #226, .T. ) ;
#215 = SURFACE_STYLE_USAGE ( .BOTH. , #241 ) ;
#216 = ADVANCED_FACE ( 'NONE', ( #46 ), #140, .T. ) ;
#217 = VECTOR ( 'NONE', #147, 1000.000000000000000 ) ;
#218 = FACE_OUTER_BOUND ( 'NONE', #81, .T. ) ;
#219 = DIRECTION ( 'NONE',  ( 1.000000000000000000, 0.000000000000000000, 0.000000000000000000 ) ) ;
#220 = FACE_OUTER_BOUND ( 'NONE', #257, .T. ) ;
#221 = CIRCLE ( 'NONE', #87, 6.000000000000000888 ) ;
#222 = CARTESIAN_POINT ( 'NONE',  ( 0.000000000000000000, 0.000000000000000000, 0.9999999999999731326 ) ) ;
#223 = ORIENTED_EDGE ( 'NONE', *, *, #174, .F. ) ;
#224 = ORIENTED_EDGE ( 'NONE', *, *, #174, .T. ) ;
#225 = EDGE_CURVE ( 'NONE', #181, #155, #221, .T. ) ;
#226 = EDGE_LOOP ( 'NONE', ( #56, #201, #268, #250 ) ) ;
#227 = AXIS2_PLACEMENT_3D ( 'NONE', #21, #119, #50 ) ;
#228 = ORIENTED_EDGE ( 'NONE', *, *, #38, .T. ) ;
#229 = ORIENTED_EDGE ( 'NONE', *, *, #123, .T. ) ;
#230 = CARTESIAN_POINT ( 'NONE',  ( -6.000000000000000888, 0.000000000000000000, 0.9999999999999731326 ) ) ;
#231 = AXIS2_PLACEMENT_3D ( 'NONE', #213, #37, #134 ) ;
#232 = FACE_OUTER_BOUND ( 'NONE', #283, .T. ) ;
#233 = CARTESIAN_POINT ( 'NONE',  ( -5.000000000000031974, 0.000000000000000000, 185.0000000000000000 ) ) ;
#234 = CYLINDRICAL_SURFACE ( 'NONE', #139, 4.049999999999999822 ) ;
#235 = DIRECTION ( 'NONE',  ( 0.000000000000000000, 0.000000000000000000, 1.000000000000000000 ) ) ;
#236 = ADVANCED_FACE ( 'NONE', ( #95 ), #204, .T. ) ;
#237 = LINE ( 'NONE', #110, #72 ) ;
#238 = DIRECTION ( 'NONE',  ( 1.000000000000000000, 0.000000000000000000, 0.000000000000000000 ) ) ;
#239 = VECTOR ( 'NONE', #159, 1000.000000000000114 ) ;
#240 = DIRECTION ( 'NONE',  ( 0.7071067811865555663, 0.000000000000000000, 0.7071067811865394681 ) ) ;
#241 = SURFACE_SIDE_STYLE ('',( #24 ) ) ;
#242 = EDGE_CURVE ( 'NONE', #151, #58, #186, .T. ) ;
#243 = DIRECTION ( 'NONE',  ( 1.000000000000000000, 0.000000000000000000, 0.000000000000000000 ) ) ;
#244 = DIRECTION ( 'NONE',  ( -0.000000000000000000, -0.000000000000000000, -1.000000000000000000 ) ) ;
#245 = AXIS2_PLACEMENT_3D ( 'NONE', #185, #272, #258 ) ;
#246 = ORIENTED_EDGE ( 'NONE', *, *, #118, .T. ) ;
#247 = DIRECTION ( 'NONE',  ( 1.000000000000000000, 0.000000000000000000, 0.000000000000000000 ) ) ;
#248 = EDGE_LOOP ( 'NONE', ( #34, #288, #267, #158 ) ) ;
#249 = EDGE_LOOP ( 'NONE', ( #103, #287, #259, #223 ) ) ;
#250 = ORIENTED_EDGE ( 'NONE', *, *, #278, .F. ) ;
#251 = STYLED_ITEM ( 'NONE', ( #302 ), #149 ) ;
#252 = AXIS2_PLACEMENT_3D ( 'NONE', #222, #171, #247 ) ;
#253 = VERTEX_POINT ( 'NONE', #44 ) ;
#254 = DIRECTION ( 'NONE',  ( 0.000000000000000000, 0.000000000000000000, 1.000000000000000000 ) ) ;
#255 = CARTESIAN_POINT ( 'NONE',  ( 0.000000000000000000, 0.000000000000000000, 167.0000000000000000 ) ) ;
#256 = DIRECTION ( 'NONE',  ( 1.000000000000000000, 0.000000000000000000, 0.000000000000000000 ) ) ;
#257 = EDGE_LOOP ( 'NONE', ( #210, #202, #8, #133 ) ) ;
#258 = DIRECTION ( 'NONE',  ( 1.000000000000000000, 0.000000000000000000, 0.000000000000000000 ) ) ;
#259 = ORIENTED_EDGE ( 'NONE', *, *, #12, .T. ) ;
#260 = AXIS2_PLACEMENT_3D ( 'NONE', #63, #115, #96 ) ;
#261 = CARTESIAN_POINT ( 'NONE',  ( 0.000000000000000000, 0.000000000000000000, 0.9999999999999731326 ) ) ;
#262 = DIRECTION ( 'NONE',  ( -0.000000000000000000, 0.000000000000000000, -1.000000000000000000 ) ) ;
#263 = COLOUR_RGB ( '',0.7921568627450980005, 0.8196078431372548767, 0.9333333333333333481 ) ;
#264 = ORIENTED_EDGE ( 'NONE', *, *, #125, .T. ) ;
#265 = CIRCLE ( 'NONE', #274, 4.049999999999999822 ) ;
#266 = ORIENTED_EDGE ( 'NONE', *, *, #69, .T. ) ;
#267 = ORIENTED_EDGE ( 'NONE', *, *, #167, .F. ) ;
#268 = ORIENTED_EDGE ( 'NONE', *, *, #273, .T. ) ;
#269 = AXIS2_PLACEMENT_3D ( 'NONE', #144, #244, #112 ) ;
#270 = CARTESIAN_POINT ( 'NONE',  ( 6.000000000000000888, 0.000000000000000000, 0.9999999999999731326 ) ) ;
#271 = CARTESIAN_POINT ( 'NONE',  ( -4.049999999999999822, 4.959819536546779614E-16, 185.0000000000000000 ) ) ;
#272 = DIRECTION ( 'NONE',  ( -0.000000000000000000, -0.000000000000000000, -1.000000000000000000 ) ) ;
#273 = EDGE_CURVE ( 'NONE', #58, #145, #198, .T. ) ;
#274 = AXIS2_PLACEMENT_3D ( 'NONE', #276, #160, #291 ) ;
#275 = CARTESIAN_POINT ( 'NONE',  ( -4.049999999999999822, 4.959819536546779614E-16, 167.0000000000000000 ) ) ;
#276 = CARTESIAN_POINT ( 'NONE',  ( 0.000000000000000000, 0.000000000000000000, 185.0000000000000000 ) ) ;
#277 = DIRECTION ( 'NONE',  ( 1.000000000000000000, 0.000000000000000000, 0.000000000000000000 ) ) ;
#278 = EDGE_CURVE ( 'NONE', #6, #145, #211, .T. ) ;
#279 = DIRECTION ( 'NONE',  ( 0.000000000000000000, 0.000000000000000000, 1.000000000000000000 ) ) ;
#280 = FILL_AREA_STYLE ('',( #121 ) ) ;
#281 = EDGE_CURVE ( 'NONE', #151, #6, #28, .T. ) ;
#282 = ORIENTED_EDGE ( 'NONE', *, *, #278, .T. ) ;
#283 = EDGE_LOOP ( 'NONE', ( #106, #153 ) ) ;
#284 = CIRCLE ( 'NONE', #245, 5.000000000000005329 ) ;
#285 = ORIENTED_EDGE ( 'NONE', *, *, #86, .T. ) ;
#286 = UNCERTAINTY_MEASURE_WITH_UNIT (LENGTH_MEASURE( 1.000000000000000082E-05 ), #22, 'distance_accuracy_value', 'NONE');
#287 = ORIENTED_EDGE ( 'NONE', *, *, #125, .F. ) ;
#288 = ORIENTED_EDGE ( 'NONE', *, *, #59, .T. ) ;
#289 = MECHANICAL_DESIGN_GEOMETRIC_PRESENTATION_REPRESENTATION (  '', ( #251 ), #7 ) ;
#290 = AXIS2_PLACEMENT_3D ( 'NONE', #177, #122, #300 ) ;
#291 = DIRECTION ( 'NONE',  ( 1.000000000000000000, 0.000000000000000000, 0.000000000000000000 ) ) ;
#292 = DIRECTION ( 'NONE',  ( -0.7071067811865362485, 0.000000000000000000, -0.7071067811865587860 ) ) ;
#293 = CARTESIAN_POINT ( 'NONE',  ( 0.000000000000000000, 0.000000000000000000, 185.0000000000000000 ) ) ;
#294 = DIRECTION ( 'NONE',  ( 1.000000000000000000, 0.000000000000000000, 0.000000000000000000 ) ) ;
#295 = CARTESIAN_POINT ( 'NONE',  ( -6.000000000000000888, 7.347880794884120722E-16, 0.9999999999999731326 ) ) ;
#296 = ADVANCED_FACE ( 'NONE', ( #218 ), #141, .T. ) ;
#297 = CYLINDRICAL_SURFACE ( 'NONE', #55, 4.049999999999999822 ) ;
#298 = DIRECTION ( 'NONE',  ( 0.000000000000000000, 0.000000000000000000, 1.000000000000000000 ) ) ;
#299 = CARTESIAN_POINT ( 'NONE',  ( -4.049999999999999822, 4.959819536546779614E-16, 167.0000000000000000 ) ) ;
#300 = DIRECTION ( 'NONE',  ( 1.000000000000000000, 0.000000000000000000, 0.000000000000000000 ) ) ;
#301 = PRESENTATION_LAYER_ASSIGNMENT (  '', '', ( #251 ) ) ;
#302 = PRESENTATION_STYLE_ASSIGNMENT (( #215 ) ) ;
#303 = DIRECTION ( 'NONE',  ( 0.000000000000000000, 0.000000000000000000, 1.000000000000000000 ) ) ;
#304 = ADVANCED_FACE ( 'NONE', ( #220 ), #188, .T. ) ;
#305 =( NAMED_UNIT ( * ) PLANE_ANGLE_UNIT ( ) SI_UNIT ( $, .RADIAN. ) );
ENDSEC;
END-ISO-10303-21;
