ISO-10303-21;
HEADER;
FILE_DESCRIPTION (( 'STEP AP214' ),
    '1' );
FILE_NAME ('Axe fileté M12 B_Structure.STEP',
    '2023-09-17T17:23:53',
    ( '' ),
    ( '' ),
    'SwSTEP 2.0',
    'SolidWorks 2023',
    '' );
FILE_SCHEMA (( 'AUTOMOTIVE_DESIGN' ));
ENDSEC;

DATA;
#1 = AXIS2_PLACEMENT_3D ( 'NONE', #117, #196, #94 ) ;
#2 = VECTOR ( 'NONE', #243, 1000.000000000000000 ) ;
#3 = DIRECTION ( 'NONE',  ( 1.000000000000000000, 0.000000000000000000, 0.000000000000000000 ) ) ;
#4 = ORIENTED_EDGE ( 'NONE', *, *, #109, .T. ) ;
#5 = AXIS2_PLACEMENT_3D ( 'NONE', #195, #191, #160 ) ;
#6 = VECTOR ( 'NONE', #193, 1000.000000000000114 ) ;
#7 = VERTEX_POINT ( 'NONE', #188 ) ;
#8 = AXIS2_PLACEMENT_3D ( 'NONE', #278, #273, #219 ) ;
#9 = EDGE_CURVE ( 'NONE', #7, #286, #146, .T. ) ;
#10 = VERTEX_POINT ( 'NONE', #140 ) ;
#11 = ORIENTED_EDGE ( 'NONE', *, *, #260, .F. ) ;
#12 = UNCERTAINTY_MEASURE_WITH_UNIT (LENGTH_MEASURE( 1.000000000000000082E-05 ), #201, 'distance_accuracy_value', 'NONE');
#13 = ORIENTED_EDGE ( 'NONE', *, *, #310, .T. ) ;
#14 = PLANE ( 'NONE',  #5 ) ;
#15 = EDGE_LOOP ( 'NONE', ( #63, #211 ) ) ;
#16 =( GEOMETRIC_REPRESENTATION_CONTEXT ( 3 ) GLOBAL_UNCERTAINTY_ASSIGNED_CONTEXT ( ( #290 ) ) GLOBAL_UNIT_ASSIGNED_CONTEXT ( ( #282, #166, #254 ) ) REPRESENTATION_CONTEXT ( 'NONE', 'WORKASPACE' ) );
#17 = DIRECTION ( 'NONE',  ( -0.000000000000000000, -0.000000000000000000, -1.000000000000000000 ) ) ;
#18 = PRODUCT_DEFINITION_CONTEXT ( 'detailed design', #216, 'design' ) ;
#19 = CARTESIAN_POINT ( 'NONE',  ( -6.000000000000000888, 0.000000000000000000, 0.9999999999999731326 ) ) ;
#20 = CARTESIAN_POINT ( 'NONE',  ( 0.000000000000000000, 0.000000000000000000, 166.9999999999999716 ) ) ;
#21 = DIRECTION ( 'NONE',  ( -0.000000000000000000, -0.000000000000000000, 1.000000000000000000 ) ) ;
#22 = VERTEX_POINT ( 'NONE', #41 ) ;
#23 = AXIS2_PLACEMENT_3D ( 'NONE', #130, #230, #100 ) ;
#24 = FACE_OUTER_BOUND ( 'NONE', #137, .T. ) ;
#25 = AXIS2_PLACEMENT_3D ( 'NONE', #20, #113, #172 ) ;
#26 = FACE_OUTER_BOUND ( 'NONE', #192, .T. ) ;
#27 = ORIENTED_EDGE ( 'NONE', *, *, #93, .F. ) ;
#28 = VERTEX_POINT ( 'NONE', #19 ) ;
#29 = ADVANCED_FACE ( 'NONE', ( #296, #58 ), #14, .T. ) ;
#30 = AXIS2_PLACEMENT_3D ( 'NONE', #257, #302, #173 ) ;
#31 = ORIENTED_EDGE ( 'NONE', *, *, #256, .F. ) ;
#32 = ORIENTED_EDGE ( 'NONE', *, *, #238, .T. ) ;
#33 = CYLINDRICAL_SURFACE ( 'NONE', #8, 3.999999999999988010 ) ;
#34 = CONICAL_SURFACE ( 'NONE', #59, 5.000000000000031974, 0.7853981633974322918 ) ;
#35 = APPLICATION_CONTEXT ( 'automotive_design' ) ;
#36 = ORIENTED_EDGE ( 'NONE', *, *, #82, .F. ) ;
#37 = EDGE_LOOP ( 'NONE', ( #105, #232, #13 ) ) ;
#38 = CARTESIAN_POINT ( 'NONE',  ( 0.000000000000000000, 0.000000000000000000, 185.0000000000000000 ) ) ;
#39 = VERTEX_POINT ( 'NONE', #252 ) ;
#40 = CARTESIAN_POINT ( 'NONE',  ( 0.000000000000000000, 0.000000000000000000, 166.9999999999999716 ) ) ;
#41 = CARTESIAN_POINT ( 'NONE',  ( -5.000000000000005329, 6.735557395310446954E-16, 0.000000000000000000 ) ) ;
#42 = EDGE_CURVE ( 'NONE', #104, #157, #284, .T. ) ;
#43 = AXIS2_PLACEMENT_3D ( 'NONE', #240, #114, #221 ) ;
#44 = DIRECTION ( 'NONE',  ( 1.000000000000000000, 0.000000000000000000, 0.000000000000000000 ) ) ;
#45 = CIRCLE ( 'NONE', #25, 3.999999999999986233 ) ;
#46 = CARTESIAN_POINT ( 'NONE',  ( 0.000000000000000000, 0.000000000000000000, 0.9999999999999731326 ) ) ;
#47 = AXIS2_PLACEMENT_3D ( 'NONE', #122, #165, #84 ) ;
#48 = ADVANCED_FACE ( 'NONE', ( #163 ), #180, .T. ) ;
#49 = PLANE ( 'NONE',  #135 ) ;
#50 = ORIENTED_EDGE ( 'NONE', *, *, #319, .F. ) ;
#51 = ORIENTED_EDGE ( 'NONE', *, *, #9, .F. ) ;
#52 = ORIENTED_EDGE ( 'NONE', *, *, #86, .T. ) ;
#53 = CIRCLE ( 'NONE', #80, 6.000000000000000888 ) ;
#54 = EDGE_LOOP ( 'NONE', ( #313, #236, #60, #287 ) ) ;
#55 = ORIENTED_EDGE ( 'NONE', *, *, #42, .F. ) ;
#56 = VECTOR ( 'NONE', #17, 1000.000000000000000 ) ;
#57 = ORIENTED_EDGE ( 'NONE', *, *, #260, .T. ) ;
#58 = FACE_OUTER_BOUND ( 'NONE', #15, .T. ) ;
#59 = AXIS2_PLACEMENT_3D ( 'NONE', #320, #142, #323 ) ;
#60 = ORIENTED_EDGE ( 'NONE', *, *, #162, .T. ) ;
#61 = ADVANCED_FACE ( 'NONE', ( #317 ), #33, .F. ) ;
#62 = DIRECTION ( 'NONE',  ( -0.000000000000000000, -0.000000000000000000, 1.000000000000000000 ) ) ;
#63 = ORIENTED_EDGE ( 'NONE', *, *, #256, .T. ) ;
#64 = CIRCLE ( 'NONE', #259, 5.000000000000031974 ) ;
#65 = CARTESIAN_POINT ( 'NONE',  ( 0.000000000000000000, 0.000000000000000000, 0.000000000000000000 ) ) ;
#66 = DIRECTION ( 'NONE',  ( 1.000000000000000000, 0.000000000000000000, 0.000000000000000000 ) ) ;
#67 = DIRECTION ( 'NONE',  ( 1.000000000000000000, 0.000000000000000000, 0.000000000000000000 ) ) ;
#68 = DIRECTION ( 'NONE',  ( 1.000000000000000000, 0.000000000000000000, 0.000000000000000000 ) ) ;
#69 = DIRECTION ( 'NONE',  ( -0.7071067811865555663, 8.659560562355030233E-17, 0.7071067811865394681 ) ) ;
#70 = DIRECTION ( 'NONE',  ( -0.000000000000000000, -0.000000000000000000, 1.000000000000000000 ) ) ;
#71 = DIRECTION ( 'NONE',  ( 0.000000000000000000, 0.000000000000000000, 1.000000000000000000 ) ) ;
#72 =( GEOMETRIC_REPRESENTATION_CONTEXT ( 3 ) GLOBAL_UNCERTAINTY_ASSIGNED_CONTEXT ( ( #12 ) ) GLOBAL_UNIT_ASSIGNED_CONTEXT ( ( #201, #325, #306 ) ) REPRESENTATION_CONTEXT ( 'NONE', 'WORKASPACE' ) );
#73 = DIRECTION ( 'NONE',  ( 0.7071067811865362485, 8.659560562354794808E-17, -0.7071067811865587860 ) ) ;
#74 = ADVANCED_FACE ( 'NONE', ( #271 ), #34, .T. ) ;
#75 = ORIENTED_EDGE ( 'NONE', *, *, #215, .T. ) ;
#76 = EDGE_LOOP ( 'NONE', ( #36, #248, #262, #289 ) ) ;
#77 = ORIENTED_EDGE ( 'NONE', *, *, #200, .T. ) ;
#78 = ORIENTED_EDGE ( 'NONE', *, *, #261, .T. ) ;
#79 = EDGE_CURVE ( 'NONE', #213, #28, #152, .T. ) ;
#80 = AXIS2_PLACEMENT_3D ( 'NONE', #326, #241, #67 ) ;
#81 = CARTESIAN_POINT ( 'NONE',  ( 0.000000000000000000, 0.000000000000000000, 0.9999999999999731326 ) ) ;
#82 = EDGE_CURVE ( 'NONE', #104, #213, #119, .T. ) ;
#83 = CARTESIAN_POINT ( 'NONE',  ( 6.000000000000000888, 7.347880794884120722E-16, 185.0000000000000000 ) ) ;
#84 = DIRECTION ( 'NONE',  ( 1.000000000000000000, 0.000000000000000000, 0.000000000000000000 ) ) ;
#85 = CONICAL_SURFACE ( 'NONE', #285, 3.999999999999986233, 1.029744258676652535 ) ;
#86 = EDGE_CURVE ( 'NONE', #312, #157, #138, .T. ) ;
#87 = CARTESIAN_POINT ( 'NONE',  ( 0.000000000000000000, 0.000000000000000000, 185.0000000000000000 ) ) ;
#88 = PRODUCT ( 'Axe filet\X2\00e9\X0\ M12 B_Structure', 'Axe filet\X2\00e9\X0\ M12 B_Structure', '', ( #148 ) ) ;
#89 = DIRECTION ( 'NONE',  ( -0.7071067811865362485, 0.000000000000000000, -0.7071067811865587860 ) ) ;
#90 = EDGE_CURVE ( 'NONE', #101, #10, #253, .T. ) ;
#91 = LINE ( 'NONE', #308, #106 ) ;
#92 = DIRECTION ( 'NONE',  ( -0.000000000000000000, -0.000000000000000000, 1.000000000000000000 ) ) ;
#93 = EDGE_CURVE ( 'NONE', #10, #101, #203, .T. ) ;
#94 = DIRECTION ( 'NONE',  ( 1.000000000000000000, 0.000000000000000000, 0.000000000000000000 ) ) ;
#95 = FACE_OUTER_BOUND ( 'NONE', #267, .T. ) ;
#96 = APPLICATION_PROTOCOL_DEFINITION ( 'draft international standard', 'automotive_design', 1998, #216 ) ;
#97 = PRESENTATION_STYLE_ASSIGNMENT (( #329 ) ) ;
#98 = DIRECTION ( 'NONE',  ( 1.000000000000000000, 0.000000000000000000, 0.000000000000000000 ) ) ;
#99 = AXIS2_PLACEMENT_3D ( 'NONE', #40, #194, #145 ) ;
#100 = DIRECTION ( 'NONE',  ( -1.000000000000000000, 0.000000000000000000, 0.000000000000000000 ) ) ;
#101 = VERTEX_POINT ( 'NONE', #190 ) ;
#102 = AXIS2_PLACEMENT_3D ( 'NONE', #293, #223, #269 ) ;
#103 = EDGE_CURVE ( 'NONE', #268, #312, #64, .T. ) ;
#104 = VERTEX_POINT ( 'NONE', #144 ) ;
#105 = ORIENTED_EDGE ( 'NONE', *, *, #109, .F. ) ;
#106 = VECTOR ( 'NONE', #73, 1000.000000000000114 ) ;
#107 = ORIENTED_EDGE ( 'NONE', *, *, #86, .F. ) ;
#108 = DIRECTION ( 'NONE',  ( 1.000000000000000000, 0.000000000000000000, 0.000000000000000000 ) ) ;
#109 = EDGE_CURVE ( 'NONE', #7, #183, #301, .T. ) ;
#110 = DIRECTION ( 'NONE',  ( -0.8571673007021113344, 1.049727191138617463E-16, 0.5150380749100558209 ) ) ;
#111 = LINE ( 'NONE', #249, #307 ) ;
#112 = VECTOR ( 'NONE', #92, 1000.000000000000000 ) ;
#113 = DIRECTION ( 'NONE',  ( -0.000000000000000000, -0.000000000000000000, 1.000000000000000000 ) ) ;
#114 = DIRECTION ( 'NONE',  ( -0.000000000000000000, -0.000000000000000000, 1.000000000000000000 ) ) ;
#115 = STYLED_ITEM ( 'NONE', ( #97 ), #228 ) ;
#116 = LINE ( 'NONE', #170, #112 ) ;
#117 = CARTESIAN_POINT ( 'NONE',  ( 0.000000000000000000, 0.000000000000000000, 0.000000000000000000 ) ) ;
#118 = FACE_OUTER_BOUND ( 'NONE', #155, .T. ) ;
#119 = LINE ( 'NONE', #83, #56 ) ;
#120 = CARTESIAN_POINT ( 'NONE',  ( -5.000000000000031974, 0.000000000000000000, 185.0000000000000000 ) ) ;
#121 = FACE_OUTER_BOUND ( 'NONE', #159, .T. ) ;
#122 = CARTESIAN_POINT ( 'NONE',  ( 0.000000000000000000, 0.000000000000000000, 0.9999999999999731326 ) ) ;
#123 = CYLINDRICAL_SURFACE ( 'NONE', #264, 6.000000000000000888 ) ;
#124 = LINE ( 'NONE', #304, #6 ) ;
#125 = SURFACE_STYLE_FILL_AREA ( #177 ) ;
#126 = VECTOR ( 'NONE', #110, 1000.000000000000000 ) ;
#127 = CIRCLE ( 'NONE', #235, 5.000000000000005329 ) ;
#128 = APPLICATION_PROTOCOL_DEFINITION ( 'draft international standard', 'automotive_design', 1998, #35 ) ;
#129 = SURFACE_SIDE_STYLE ('',( #125 ) ) ;
#130 = CARTESIAN_POINT ( 'NONE',  ( 0.000000000000000000, 0.000000000000000000, 185.0000000000000000 ) ) ;
#131 = AXIS2_PLACEMENT_3D ( 'NONE', #217, #322, #66 ) ;
#132 = ORIENTED_EDGE ( 'NONE', *, *, #319, .T. ) ;
#133 = CIRCLE ( 'NONE', #233, 5.000000000000005329 ) ;
#134 = ORIENTED_EDGE ( 'NONE', *, *, #310, .F. ) ;
#135 = AXIS2_PLACEMENT_3D ( 'NONE', #222, #150, #300 ) ;
#136 = ORIENTED_EDGE ( 'NONE', *, *, #79, .F. ) ;
#137 = EDGE_LOOP ( 'NONE', ( #185, #31, #52, #55 ) ) ;
#138 = LINE ( 'NONE', #291, #281 ) ;
#139 = DIRECTION ( 'NONE',  ( -1.000000000000000000, 0.000000000000000000, 0.000000000000000000 ) ) ;
#140 = CARTESIAN_POINT ( 'NONE',  ( -3.999999999999989786, 4.898587196589400010E-16, 185.0000000000000000 ) ) ;
#141 = CARTESIAN_POINT ( 'NONE',  ( -6.000000000000000888, 0.000000000000000000, 185.0000000000000000 ) ) ;
#142 = DIRECTION ( 'NONE',  ( 0.000000000000000000, 0.000000000000000000, -1.000000000000000000 ) ) ;
#143 = AXIS2_PLACEMENT_3D ( 'NONE', #147, #303, #68 ) ;
#144 = CARTESIAN_POINT ( 'NONE',  ( 6.000000000000000888, 7.347880794884120722E-16, 184.0000000000000000 ) ) ;
#145 = DIRECTION ( 'NONE',  ( 1.000000000000000000, 0.000000000000000000, 0.000000000000000000 ) ) ;
#146 = LINE ( 'NONE', #242, #126 ) ;
#147 = CARTESIAN_POINT ( 'NONE',  ( 0.000000000000000000, 0.000000000000000000, 185.0000000000000000 ) ) ;
#148 = PRODUCT_CONTEXT ( 'NONE', #35, 'mechanical' ) ;
#149 = CARTESIAN_POINT ( 'NONE',  ( -3.999999999999986233, 4.898587196589396065E-16, 166.9999999999999716 ) ) ;
#150 = DIRECTION ( 'NONE',  ( 0.000000000000000000, 0.000000000000000000, 1.000000000000000000 ) ) ;
#151 = VECTOR ( 'NONE', #69, 1000.000000000000114 ) ;
#152 = CIRCLE ( 'NONE', #199, 6.000000000000000888 ) ;
#153 = ORIENTED_EDGE ( 'NONE', *, *, #93, .T. ) ;
#154 = EDGE_CURVE ( 'NONE', #268, #104, #91, .T. ) ;
#155 = EDGE_LOOP ( 'NONE', ( #32, #132 ) ) ;
#156 = PRODUCT_RELATED_PRODUCT_CATEGORY ( 'part', '', ( #88 ) ) ;
#157 = VERTEX_POINT ( 'NONE', #197 ) ;
#158 = EDGE_CURVE ( 'NONE', #28, #213, #53, .T. ) ;
#159 = EDGE_LOOP ( 'NONE', ( #214, #237, #263, #288 ) ) ;
#160 = DIRECTION ( 'NONE',  ( 1.000000000000000000, 0.000000000000000000, -0.000000000000000000 ) ) ;
#161 = CONICAL_SURFACE ( 'NONE', #23, 5.000000000000031974, 0.7853981633974322918 ) ;
#162 = EDGE_CURVE ( 'NONE', #183, #101, #116, .T. ) ;
#163 = FACE_OUTER_BOUND ( 'NONE', #209, .T. ) ;
#164 = FACE_OUTER_BOUND ( 'NONE', #76, .T. ) ;
#165 = DIRECTION ( 'NONE',  ( -0.000000000000000000, -0.000000000000000000, 1.000000000000000000 ) ) ;
#166 =( NAMED_UNIT ( * ) PLANE_ANGLE_UNIT ( ) SI_UNIT ( $, .RADIAN. ) );
#167 = ORIENTED_EDGE ( 'NONE', *, *, #90, .F. ) ;
#168 = PRODUCT_DEFINITION_SHAPE ( 'NONE', 'NONE',  #182 ) ;
#169 = CARTESIAN_POINT ( 'NONE',  ( 3.999999999999986233, 0.000000000000000000, 166.9999999999999716 ) ) ;
#170 = CARTESIAN_POINT ( 'NONE',  ( 3.999999999999988010, 0.000000000000000000, 185.0000000000000000 ) ) ;
#171 = ADVANCED_FACE ( 'NONE', ( #164 ), #123, .T. ) ;
#172 = DIRECTION ( 'NONE',  ( 1.000000000000000000, 0.000000000000000000, 0.000000000000000000 ) ) ;
#173 = DIRECTION ( 'NONE',  ( -1.000000000000000000, 0.000000000000000000, 0.000000000000000000 ) ) ;
#174 = CARTESIAN_POINT ( 'NONE',  ( 5.000000000000031974, 6.735557395310462731E-16, 185.0000000000000000 ) ) ;
#175 = CARTESIAN_POINT ( 'NONE',  ( 0.000000000000000000, 0.000000000000000000, 166.9999999999999716 ) ) ;
#176 = MECHANICAL_DESIGN_GEOMETRIC_PRESENTATION_REPRESENTATION (  '', ( #115 ), #72 ) ;
#177 = FILL_AREA_STYLE ('',( #224 ) ) ;
#178 = ORIENTED_EDGE ( 'NONE', *, *, #154, .T. ) ;
#179 = ADVANCED_FACE ( 'NONE', ( #198 ), #218, .F. ) ;
#180 = CONICAL_SURFACE ( 'NONE', #47, 6.000000000000000888, 0.7853981633974596033 ) ;
#181 = ORIENTED_EDGE ( 'NONE', *, *, #158, .F. ) ;
#182 = PRODUCT_DEFINITION ( 'UNKNOWN', '', #202, #18 ) ;
#183 = VERTEX_POINT ( 'NONE', #294 ) ;
#184 = CONICAL_SURFACE ( 'NONE', #99, 3.999999999999986233, 1.029744258676652535 ) ;
#185 = ORIENTED_EDGE ( 'NONE', *, *, #154, .F. ) ;
#186 = ORIENTED_EDGE ( 'NONE', *, *, #162, .F. ) ;
#187 = EDGE_CURVE ( 'NONE', #157, #28, #272, .T. ) ;
#188 = CARTESIAN_POINT ( 'NONE',  ( -4.864583467031828823E-15, 0.000000000000000000, 164.5965575238897429 ) ) ;
#189 = ADVANCED_BREP_SHAPE_REPRESENTATION ( 'Axe filet\X2\00e9\X0\ M12 B_Structure', ( #228, #1 ), #16 ) ;
#190 = CARTESIAN_POINT ( 'NONE',  ( 3.999999999999989786, 0.000000000000000000, 185.0000000000000000 ) ) ;
#191 = DIRECTION ( 'NONE',  ( 0.000000000000000000, 0.000000000000000000, 1.000000000000000000 ) ) ;
#192 = EDGE_LOOP ( 'NONE', ( #51, #4, #75 ) ) ;
#193 = DIRECTION ( 'NONE',  ( 0.7071067811865555663, 0.000000000000000000, 0.7071067811865394681 ) ) ;
#194 = DIRECTION ( 'NONE',  ( -0.000000000000000000, -0.000000000000000000, 1.000000000000000000 ) ) ;
#195 = CARTESIAN_POINT ( 'NONE',  ( 0.000000000000000000, 0.000000000000000000, 185.0000000000000000 ) ) ;
#196 = DIRECTION ( 'NONE',  ( 0.000000000000000000, 0.000000000000000000, 1.000000000000000000 ) ) ;
#197 = CARTESIAN_POINT ( 'NONE',  ( -6.000000000000000888, 0.000000000000000000, 184.0000000000000000 ) ) ;
#198 = FACE_OUTER_BOUND ( 'NONE', #234, .T. ) ;
#199 = AXIS2_PLACEMENT_3D ( 'NONE', #81, #246, #108 ) ;
#200 = EDGE_CURVE ( 'NONE', #286, #10, #111, .T. ) ;
#201 =( LENGTH_UNIT ( ) NAMED_UNIT ( * ) SI_UNIT ( .MILLI., .METRE. ) );
#202 = PRODUCT_DEFINITION_FORMATION_WITH_SPECIFIED_SOURCE ( 'ANY', '', #88, .NOT_KNOWN. ) ;
#203 = CIRCLE ( 'NONE', #131, 3.999999999999989786 ) ;
#204 = DIRECTION ( 'NONE',  ( 1.000000000000000000, 0.000000000000000000, 0.000000000000000000 ) ) ;
#205 = ORIENTED_EDGE ( 'NONE', *, *, #103, .F. ) ;
#206 = CLOSED_SHELL ( 'NONE', ( #179, #292, #74, #48, #227, #171, #29, #231, #210, #251, #208, #61 ) ) ;
#207 = AXIS2_PLACEMENT_3D ( 'NONE', #226, #258, #3 ) ;
#208 = ADVANCED_FACE ( 'NONE', ( #26 ), #184, .F. ) ;
#209 = EDGE_LOOP ( 'NONE', ( #50, #57, #136, #314 ) ) ;
#210 = ADVANCED_FACE ( 'NONE', ( #95 ), #276, .T. ) ;
#211 = ORIENTED_EDGE ( 'NONE', *, *, #103, .T. ) ;
#212 = AXIS2_PLACEMENT_3D ( 'NONE', #46, #70, #204 ) ;
#213 = VERTEX_POINT ( 'NONE', #250 ) ;
#214 = ORIENTED_EDGE ( 'NONE', *, *, #244, .T. ) ;
#215 = EDGE_CURVE ( 'NONE', #183, #286, #229, .T. ) ;
#216 = APPLICATION_CONTEXT ( 'automotive_design' ) ;
#217 = CARTESIAN_POINT ( 'NONE',  ( 0.000000000000000000, 0.000000000000000000, 185.0000000000000000 ) ) ;
#218 = CYLINDRICAL_SURFACE ( 'NONE', #143, 3.999999999999988010 ) ;
#219 = DIRECTION ( 'NONE',  ( 1.000000000000000000, 0.000000000000000000, 0.000000000000000000 ) ) ;
#220 = LINE ( 'NONE', #274, #151 ) ;
#221 = DIRECTION ( 'NONE',  ( 1.000000000000000000, 0.000000000000000000, 0.000000000000000000 ) ) ;
#222 = CARTESIAN_POINT ( 'NONE',  ( 0.000000000000000000, 0.000000000000000000, 0.000000000000000000 ) ) ;
#223 = DIRECTION ( 'NONE',  ( 0.000000000000000000, 0.000000000000000000, -1.000000000000000000 ) ) ;
#224 = FILL_AREA_STYLE_COLOUR ( '', #321 ) ;
#225 = DIRECTION ( 'NONE',  ( 0.8571673007021113344, 0.000000000000000000, 0.5150380749100558209 ) ) ;
#226 = CARTESIAN_POINT ( 'NONE',  ( 0.000000000000000000, 0.000000000000000000, 184.0000000000000000 ) ) ;
#227 = ADVANCED_FACE ( 'NONE', ( #121 ), #309, .T. ) ;
#228 = MANIFOLD_SOLID_BREP ( 'Diamètre du perçage Ø8.0 (8)1', #206 ) ;
#229 = CIRCLE ( 'NONE', #315, 3.999999999999986233 ) ;
#230 = DIRECTION ( 'NONE',  ( 0.000000000000000000, 0.000000000000000000, -1.000000000000000000 ) ) ;
#231 = ADVANCED_FACE ( 'NONE', ( #118 ), #49, .F. ) ;
#232 = ORIENTED_EDGE ( 'NONE', *, *, #9, .T. ) ;
#233 = AXIS2_PLACEMENT_3D ( 'NONE', #324, #245, #44 ) ;
#234 = EDGE_LOOP ( 'NONE', ( #134, #77, #153, #186 ) ) ;
#235 = AXIS2_PLACEMENT_3D ( 'NONE', #65, #277, #280 ) ;
#236 = ORIENTED_EDGE ( 'NONE', *, *, #215, .F. ) ;
#237 = ORIENTED_EDGE ( 'NONE', *, *, #82, .T. ) ;
#238 = EDGE_CURVE ( 'NONE', #39, #22, #127, .T. ) ;
#239 = ORIENTED_EDGE ( 'NONE', *, *, #238, .F. ) ;
#240 = CARTESIAN_POINT ( 'NONE',  ( 0.000000000000000000, 0.000000000000000000, 185.0000000000000000 ) ) ;
#241 = DIRECTION ( 'NONE',  ( -0.000000000000000000, -0.000000000000000000, 1.000000000000000000 ) ) ;
#242 = CARTESIAN_POINT ( 'NONE',  ( -3.999999999999986233, 4.898587196589396065E-16, 166.9999999999999716 ) ) ;
#243 = DIRECTION ( 'NONE',  ( -0.000000000000000000, -0.000000000000000000, -1.000000000000000000 ) ) ;
#244 = EDGE_CURVE ( 'NONE', #157, #104, #266, .T. ) ;
#245 = DIRECTION ( 'NONE',  ( -0.000000000000000000, -0.000000000000000000, -1.000000000000000000 ) ) ;
#246 = DIRECTION ( 'NONE',  ( -0.000000000000000000, -0.000000000000000000, 1.000000000000000000 ) ) ;
#247 = VECTOR ( 'NONE', #225, 1000.000000000000000 ) ;
#248 = ORIENTED_EDGE ( 'NONE', *, *, #42, .T. ) ;
#249 = CARTESIAN_POINT ( 'NONE',  ( -3.999999999999988010, 4.898587196589398038E-16, 185.0000000000000000 ) ) ;
#250 = CARTESIAN_POINT ( 'NONE',  ( 6.000000000000000888, 7.347880794884120722E-16, 0.9999999999999731326 ) ) ;
#251 = ADVANCED_FACE ( 'NONE', ( #24 ), #161, .T. ) ;
#252 = CARTESIAN_POINT ( 'NONE',  ( 5.000000000000005329, 0.000000000000000000, 0.000000000000000000 ) ) ;
#253 = CIRCLE ( 'NONE', #43, 3.999999999999989786 ) ;
#254 =( NAMED_UNIT ( * ) SI_UNIT ( $, .STERADIAN. ) SOLID_ANGLE_UNIT ( ) );
#255 = CIRCLE ( 'NONE', #295, 5.000000000000031974 ) ;
#256 = EDGE_CURVE ( 'NONE', #312, #268, #255, .T. ) ;
#257 = CARTESIAN_POINT ( 'NONE',  ( 0.000000000000000000, 0.000000000000000000, 185.0000000000000000 ) ) ;
#258 = DIRECTION ( 'NONE',  ( 0.000000000000000000, 0.000000000000000000, -1.000000000000000000 ) ) ;
#259 = AXIS2_PLACEMENT_3D ( 'NONE', #87, #298, #275 ) ;
#260 = EDGE_CURVE ( 'NONE', #22, #28, #220, .T. ) ;
#261 = EDGE_CURVE ( 'NONE', #39, #213, #124, .T. ) ;
#262 = ORIENTED_EDGE ( 'NONE', *, *, #187, .T. ) ;
#263 = ORIENTED_EDGE ( 'NONE', *, *, #79, .T. ) ;
#264 = AXIS2_PLACEMENT_3D ( 'NONE', #327, #279, #139 ) ;
#265 = EDGE_LOOP ( 'NONE', ( #167, #27 ) ) ;
#266 = CIRCLE ( 'NONE', #207, 6.000000000000000888 ) ;
#267 = EDGE_LOOP ( 'NONE', ( #11, #239, #78, #181 ) ) ;
#268 = VERTEX_POINT ( 'NONE', #174 ) ;
#269 = DIRECTION ( 'NONE',  ( 1.000000000000000000, 0.000000000000000000, 0.000000000000000000 ) ) ;
#270 = PRESENTATION_LAYER_ASSIGNMENT (  '', '', ( #115 ) ) ;
#271 = FACE_OUTER_BOUND ( 'NONE', #318, .T. ) ;
#272 = LINE ( 'NONE', #141, #2 ) ;
#273 = DIRECTION ( 'NONE',  ( -0.000000000000000000, -0.000000000000000000, 1.000000000000000000 ) ) ;
#274 = CARTESIAN_POINT ( 'NONE',  ( -6.000000000000000888, 7.347880794884120722E-16, 0.9999999999999731326 ) ) ;
#275 = DIRECTION ( 'NONE',  ( 1.000000000000000000, 0.000000000000000000, 0.000000000000000000 ) ) ;
#276 = CONICAL_SURFACE ( 'NONE', #212, 6.000000000000000888, 0.7853981633974596033 ) ;
#277 = DIRECTION ( 'NONE',  ( -0.000000000000000000, -0.000000000000000000, -1.000000000000000000 ) ) ;
#278 = CARTESIAN_POINT ( 'NONE',  ( 0.000000000000000000, 0.000000000000000000, 185.0000000000000000 ) ) ;
#279 = DIRECTION ( 'NONE',  ( -0.000000000000000000, -0.000000000000000000, -1.000000000000000000 ) ) ;
#280 = DIRECTION ( 'NONE',  ( 1.000000000000000000, 0.000000000000000000, 0.000000000000000000 ) ) ;
#281 = VECTOR ( 'NONE', #89, 1000.000000000000114 ) ;
#282 =( LENGTH_UNIT ( ) NAMED_UNIT ( * ) SI_UNIT ( .MILLI., .METRE. ) );
#283 = FACE_OUTER_BOUND ( 'NONE', #37, .T. ) ;
#284 = CIRCLE ( 'NONE', #102, 6.000000000000000888 ) ;
#285 = AXIS2_PLACEMENT_3D ( 'NONE', #305, #62, #297 ) ;
#286 = VERTEX_POINT ( 'NONE', #149 ) ;
#287 = ORIENTED_EDGE ( 'NONE', *, *, #90, .T. ) ;
#288 = ORIENTED_EDGE ( 'NONE', *, *, #187, .F. ) ;
#289 = ORIENTED_EDGE ( 'NONE', *, *, #158, .T. ) ;
#290 = UNCERTAINTY_MEASURE_WITH_UNIT (LENGTH_MEASURE( 1.000000000000000082E-05 ), #282, 'distance_accuracy_value', 'NONE');
#291 = CARTESIAN_POINT ( 'NONE',  ( -5.000000000000031974, 0.000000000000000000, 185.0000000000000000 ) ) ;
#292 = ADVANCED_FACE ( 'NONE', ( #283 ), #85, .F. ) ;
#293 = CARTESIAN_POINT ( 'NONE',  ( 0.000000000000000000, 0.000000000000000000, 184.0000000000000000 ) ) ;
#294 = CARTESIAN_POINT ( 'NONE',  ( 3.999999999999986233, 0.000000000000000000, 166.9999999999999716 ) ) ;
#295 = AXIS2_PLACEMENT_3D ( 'NONE', #38, #71, #299 ) ;
#296 = FACE_BOUND ( 'NONE', #265, .T. ) ;
#297 = DIRECTION ( 'NONE',  ( 1.000000000000000000, 0.000000000000000000, 0.000000000000000000 ) ) ;
#298 = DIRECTION ( 'NONE',  ( 0.000000000000000000, 0.000000000000000000, 1.000000000000000000 ) ) ;
#299 = DIRECTION ( 'NONE',  ( 1.000000000000000000, 0.000000000000000000, 0.000000000000000000 ) ) ;
#300 = DIRECTION ( 'NONE',  ( 1.000000000000000000, 0.000000000000000000, -0.000000000000000000 ) ) ;
#301 = LINE ( 'NONE', #169, #247 ) ;
#302 = DIRECTION ( 'NONE',  ( -0.000000000000000000, -0.000000000000000000, -1.000000000000000000 ) ) ;
#303 = DIRECTION ( 'NONE',  ( -0.000000000000000000, -0.000000000000000000, 1.000000000000000000 ) ) ;
#304 = CARTESIAN_POINT ( 'NONE',  ( 6.000000000000000888, 0.000000000000000000, 0.9999999999999731326 ) ) ;
#305 = CARTESIAN_POINT ( 'NONE',  ( 0.000000000000000000, 0.000000000000000000, 166.9999999999999716 ) ) ;
#306 =( NAMED_UNIT ( * ) SI_UNIT ( $, .STERADIAN. ) SOLID_ANGLE_UNIT ( ) );
#307 = VECTOR ( 'NONE', #311, 1000.000000000000000 ) ;
#308 = CARTESIAN_POINT ( 'NONE',  ( 5.000000000000031974, 6.123233995736805725E-16, 185.0000000000000000 ) ) ;
#309 = CYLINDRICAL_SURFACE ( 'NONE', #30, 6.000000000000000888 ) ;
#310 = EDGE_CURVE ( 'NONE', #286, #183, #45, .T. ) ;
#311 = DIRECTION ( 'NONE',  ( -0.000000000000000000, -0.000000000000000000, 1.000000000000000000 ) ) ;
#312 = VERTEX_POINT ( 'NONE', #120 ) ;
#313 = ORIENTED_EDGE ( 'NONE', *, *, #200, .F. ) ;
#314 = ORIENTED_EDGE ( 'NONE', *, *, #261, .F. ) ;
#315 = AXIS2_PLACEMENT_3D ( 'NONE', #175, #21, #98 ) ;
#316 = ORIENTED_EDGE ( 'NONE', *, *, #244, .F. ) ;
#317 = FACE_OUTER_BOUND ( 'NONE', #54, .T. ) ;
#318 = EDGE_LOOP ( 'NONE', ( #205, #178, #316, #107 ) ) ;
#319 = EDGE_CURVE ( 'NONE', #22, #39, #133, .T. ) ;
#320 = CARTESIAN_POINT ( 'NONE',  ( 0.000000000000000000, 0.000000000000000000, 185.0000000000000000 ) ) ;
#321 = COLOUR_RGB ( '',0.7921568627450980005, 0.8196078431372548767, 0.9333333333333333481 ) ;
#322 = DIRECTION ( 'NONE',  ( -0.000000000000000000, -0.000000000000000000, 1.000000000000000000 ) ) ;
#323 = DIRECTION ( 'NONE',  ( -1.000000000000000000, 0.000000000000000000, 0.000000000000000000 ) ) ;
#324 = CARTESIAN_POINT ( 'NONE',  ( 0.000000000000000000, 0.000000000000000000, 0.000000000000000000 ) ) ;
#325 =( NAMED_UNIT ( * ) PLANE_ANGLE_UNIT ( ) SI_UNIT ( $, .RADIAN. ) );
#326 = CARTESIAN_POINT ( 'NONE',  ( 0.000000000000000000, 0.000000000000000000, 0.9999999999999731326 ) ) ;
#327 = CARTESIAN_POINT ( 'NONE',  ( 0.000000000000000000, 0.000000000000000000, 185.0000000000000000 ) ) ;
#328 = SHAPE_DEFINITION_REPRESENTATION ( #168, #189 ) ;
#329 = SURFACE_STYLE_USAGE ( .BOTH. , #129 ) ;
ENDSEC;
END-ISO-10303-21;
