ISO-10303-21;
HEADER;
/* Generated by software containing ST-Developer
 * from STEP Tools, Inc. (www.steptools.com) 
 */

FILE_DESCRIPTION(
/* description */ ('Alibre Inc.'),
/* implementation_level */ '2;1');

FILE_NAME(
/* name */ 'export0',
/* time_stamp */ '2023-09-08T12:25:25+02:00',
/* author */ (''),
/* organization */ (''),
/* preprocessor_version */ 'ST-DEVELOPER v14',
/* originating_system */ 'Alibre',
/* authorisation */ '');

FILE_SCHEMA (('CONFIG_CONTROL_DESIGN'));
ENDSEC;

DATA;
#10=MECHANICAL_CONTEXT('detailed design',#18,'mechanical');
#11=PRODUCT_RELATED_PRODUCT_CATEGORY('d\X\E9tail','',(#98));
#12=CC_DESIGN_SECURITY_CLASSIFICATION(#14,(#97));
#13=SECURITY_CLASSIFICATION_LEVEL('unclassified');
#14=SECURITY_CLASSIFICATION('nom','Niveau de s\X\E9curit\X\E9 pour la v
ersion',#13);
#15=SHAPE_DEFINITION_REPRESENTATION(#16,#209);
#16=PRODUCT_DEFINITION_SHAPE('','Desc. D\X\E9finition',#96);
#17=APPLICATION_PROTOCOL_DEFINITION('AP definition status',
'config_control_design',1994,#18);
#18=APPLICATION_CONTEXT(
'control the configuration of three dimensional design');
#19=DESIGN_CONTEXT('detailed design',#18,'design');
#20=PERSON_AND_ORGANIZATION_ROLE('creator');
#21=PERSON_AND_ORGANIZATION_ROLE('classification_officer');
#22=PERSON_AND_ORGANIZATION_ROLE('creator');
#23=PERSON_AND_ORGANIZATION_ROLE('design_supplier');
#24=PERSON_AND_ORGANIZATION_ROLE('design_owner');
#25=CC_DESIGN_PERSON_AND_ORGANIZATION_ASSIGNMENT(#57,#20,(#96));
#26=CC_DESIGN_PERSON_AND_ORGANIZATION_ASSIGNMENT(#60,#21,(#14));
#27=CC_DESIGN_PERSON_AND_ORGANIZATION_ASSIGNMENT(#61,#22,(#97));
#28=CC_DESIGN_PERSON_AND_ORGANIZATION_ASSIGNMENT(#62,#23,(#97));
#29=CC_DESIGN_PERSON_AND_ORGANIZATION_ASSIGNMENT(#63,#24,(#98));
#30=DATE_TIME_ROLE('creation_date');
#31=DATE_TIME_ROLE('classification_date');
#32=CC_DESIGN_DATE_AND_TIME_ASSIGNMENT(#86,#30,(#96));
#33=CC_DESIGN_DATE_AND_TIME_ASSIGNMENT(#89,#31,(#14));
#34=CC_DESIGN_APPROVAL(#93,(#96));
#35=CC_DESIGN_APPROVAL(#94,(#97));
#36=CC_DESIGN_APPROVAL(#95,(#14));
#37=APPROVAL_PERSON_ORGANIZATION(#56,#93,#64);
#38=APPROVAL_PERSON_ORGANIZATION(#58,#94,#65);
#39=APPROVAL_PERSON_ORGANIZATION(#59,#95,#66);
#40=ORGANIZATION('DEFINITION_APPROVEDBY_ORG_ID',
'DEFINITION_APPROVEDBY_ORG_NAME','DEFINITION_APPROVEDBY_ORG_DESCR');
#41=ORGANIZATION('DEF_CREATOR_ORG_ID','DEF_CREATOR_ORG_NAME',
'DEF_CREATOR_ORG_DESCR');
#42=ORGANIZATION('ID_ORG_APPROBATEUR','NOM_ORG_APPROBATEUR',
'DESCR_ORG_APPROBATEUR');
#43=ORGANIZATION('SECURITY_APPROVEDBY_ORG_ID',
'SECURITY_APPROVEDBY_ORG_NAME','SECURITY_APPROVEDBY_ORG_DESCR');
#44=ORGANIZATION('CLASSOFFICER_ORG_ID','CLASSOFFICER_ORG_NAME',
'CLASSOFFICER_ORG_DESCR');
#45=ORGANIZATION('CODE_SOCIETE_CREATEUR','NOM_SOCIETE_CREATEUR',
'DESCRIPTION_SOCIETE_CREATEUR');
#46=ORGANIZATION('SUPPLIER_ORG_ID','SUPPLIER_ORG_NAME',
'SUPPLIER_ORG_DESCR');
#47=ORGANIZATION('PROPRIETAIRE_SOCIETE_ID','PROPRIETAIRE_SOCIETE_NOM',
'PROPRIETAIRE_SOCIETE_DESCRIPTION');
#48=PERSON('ID_Validateur D\X\E9finition',
'DEFINITION_APPROVEDBY_LASTNAME','DEFINITION_APPROVEDBY_FIRSTNAME',$,$,$);
#49=PERSON('DEF_createrID','DEF_CREATOR_LASTNAME',
'DEF_CREATOR_FIRSTNAME',$,$,$);
#50=PERSON('ID Validateur','NOM_APPROBATEUR','PRENOM_APPROBATEUR',$,$,$);
#51=PERSON('SECURITY_approverID','SECURITY_LASTNAME',
'SECURITY_APPROVEDBY_FIRSTNAME',$,$,$);
#52=PERSON('classifierID','CLASSOFFICER_LASTNAME',
'CLASSOFFICER_FIRSTNAME',$,$,$);
#53=PERSON('Code cr\X\E9ateur','NOM_CREATEUR','PRENOM_CREATEUR',$,$,$);
#54=PERSON('Code fournisseur','SUPPLIER_LASTNAME','SUPPLIER_FIRSTNAME',$,
$,$);
#55=PERSON('ID propri\X\E9taire','PROPRIETAIRE_NOM',
'PROPRIETAIRE_PRENOM',$,$,$);
#56=PERSON_AND_ORGANIZATION(#48,#40);
#57=PERSON_AND_ORGANIZATION(#49,#41);
#58=PERSON_AND_ORGANIZATION(#50,#42);
#59=PERSON_AND_ORGANIZATION(#51,#43);
#60=PERSON_AND_ORGANIZATION(#52,#44);
#61=PERSON_AND_ORGANIZATION(#53,#45);
#62=PERSON_AND_ORGANIZATION(#54,#46);
#63=PERSON_AND_ORGANIZATION(#55,#47);
#64=APPROVAL_ROLE('definition_approval');
#65=APPROVAL_ROLE('version_approval');
#66=APPROVAL_ROLE('security_approval');
#67=APPROVAL_DATE_TIME(#85,#93);
#68=APPROVAL_DATE_TIME(#87,#94);
#69=APPROVAL_DATE_TIME(#88,#95);
#70=COORDINATED_UNIVERSAL_TIME_OFFSET(2,0,.AHEAD.);
#71=COORDINATED_UNIVERSAL_TIME_OFFSET(2,0,.AHEAD.);
#72=COORDINATED_UNIVERSAL_TIME_OFFSET(2,0,.AHEAD.);
#73=COORDINATED_UNIVERSAL_TIME_OFFSET(2,0,.AHEAD.);
#74=COORDINATED_UNIVERSAL_TIME_OFFSET(2,0,.AHEAD.);
#75=LOCAL_TIME(12,25,19.,#70);
#76=LOCAL_TIME(12,25,19.,#71);
#77=LOCAL_TIME(12,25,19.,#72);
#78=LOCAL_TIME(12,25,19.,#73);
#79=LOCAL_TIME(12,25,19.,#74);
#80=CALENDAR_DATE(2023,8,9);
#81=CALENDAR_DATE(2023,8,9);
#82=CALENDAR_DATE(2023,8,9);
#83=CALENDAR_DATE(2023,8,9);
#84=CALENDAR_DATE(2023,8,9);
#85=DATE_AND_TIME(#80,#75);
#86=DATE_AND_TIME(#81,#76);
#87=DATE_AND_TIME(#82,#77);
#88=DATE_AND_TIME(#83,#78);
#89=DATE_AND_TIME(#84,#79);
#90=APPROVAL_STATUS('not_yet_approved');
#91=APPROVAL_STATUS('not_yet_approved');
#92=APPROVAL_STATUS('not_yet_approved');
#93=APPROVAL(#90,'Concept valid\X\E9');
#94=APPROVAL(#91,'version approuv\X\E9e');
#95=APPROVAL(#92,'security approval');
#96=PRODUCT_DEFINITION('ID D\X\E9finition','Desc. D\X\E9finition',#97,#19);
#97=PRODUCT_DEFINITION_FORMATION_WITH_SPECIFIED_SOURCE(
'REFERENCE_PRODUIT','DESCR_VERSION_PRODUIT',#98,.NOT_KNOWN.);
#98=PRODUCT('ID_1','Pieds Teflon fond de cuve','',(#10));
#99=(
LENGTH_UNIT()
NAMED_UNIT(*)
SI_UNIT(.CENTI.,.METRE.)
);
#100=(
NAMED_UNIT(*)
PLANE_ANGLE_UNIT()
SI_UNIT($,.RADIAN.)
);
#101=(
NAMED_UNIT(*)
SI_UNIT($,.STERADIAN.)
SOLID_ANGLE_UNIT()
);
#102=UNCERTAINTY_MEASURE_WITH_UNIT(LENGTH_MEASURE(1.E-006),#99,
'DISTANCE_ACCURACY_VALUE',
'Maximum model space distance between geometric entities at asserted co
nnectivities');
#103=(
GEOMETRIC_REPRESENTATION_CONTEXT(3)
GLOBAL_UNCERTAINTY_ASSIGNED_CONTEXT((#102))
GLOBAL_UNIT_ASSIGNED_CONTEXT((#101,#100,#99))
REPRESENTATION_CONTEXT('ID1','3D')
);
#104=CONICAL_SURFACE('',#170,0.5,0.785398163397448);
#105=PLANE('',#165);
#106=PLANE('',#169);
#107=CYLINDRICAL_SURFACE('',#163,0.5);
#108=CYLINDRICAL_SURFACE('',#166,0.2067);
#109=VERTEX_POINT('',#192);
#110=VERTEX_POINT('',#194);
#111=VERTEX_POINT('',#197);
#112=VERTEX_POINT('',#201);
#113=VERTEX_POINT('',#203);
#114=CIRCLE('',#161,0.4);
#115=CIRCLE('',#162,0.5);
#116=CIRCLE('',#164,0.5);
#117=CIRCLE('',#167,0.2067);
#118=CIRCLE('',#168,0.2067);
#119=EDGE_CURVE('',#109,#109,#114,.T.);
#120=EDGE_CURVE('',#110,#110,#115,.T.);
#121=EDGE_CURVE('',#111,#111,#116,.T.);
#122=EDGE_CURVE('',#112,#112,#117,.T.);
#123=EDGE_CURVE('',#113,#113,#118,.T.);
#124=ORIENTED_EDGE('',*,*,#119,.T.);
#125=ORIENTED_EDGE('',*,*,#120,.T.);
#126=ORIENTED_EDGE('',*,*,#121,.T.);
#127=ORIENTED_EDGE('',*,*,#120,.F.);
#128=ORIENTED_EDGE('',*,*,#119,.F.);
#129=ORIENTED_EDGE('',*,*,#122,.T.);
#130=ORIENTED_EDGE('',*,*,#123,.F.);
#131=ORIENTED_EDGE('',*,*,#123,.T.);
#132=ORIENTED_EDGE('',*,*,#122,.F.);
#133=ORIENTED_EDGE('',*,*,#121,.F.);
#134=EDGE_LOOP('',(#124));
#135=EDGE_LOOP('',(#125));
#136=EDGE_LOOP('',(#126));
#137=EDGE_LOOP('',(#127));
#138=EDGE_LOOP('',(#128));
#139=EDGE_LOOP('',(#129));
#140=EDGE_LOOP('',(#130));
#141=EDGE_LOOP('',(#131));
#142=EDGE_LOOP('',(#132));
#143=EDGE_LOOP('',(#133));
#144=FACE_BOUND('',#134,.T.);
#145=FACE_BOUND('',#135,.T.);
#146=FACE_BOUND('',#136,.T.);
#147=FACE_BOUND('',#137,.T.);
#148=FACE_BOUND('',#138,.T.);
#149=FACE_BOUND('',#139,.T.);
#150=FACE_BOUND('',#140,.T.);
#151=FACE_BOUND('',#141,.T.);
#152=FACE_BOUND('',#142,.T.);
#153=FACE_BOUND('',#143,.T.);
#154=ADVANCED_FACE('',(#144,#145),#206,.T.);
#155=ADVANCED_FACE('',(#146,#147),#107,.T.);
#156=ADVANCED_FACE('',(#148),#105,.F.);
#157=ADVANCED_FACE('',(#149,#150),#108,.F.);
#158=ADVANCED_FACE('',(#151),#106,.F.);
#159=ADVANCED_FACE('',(#152,#153),#104,.F.);
#160=AXIS2_PLACEMENT_3D('',#190,#171,$);
#161=AXIS2_PLACEMENT_3D('',#191,#172,#173);
#162=AXIS2_PLACEMENT_3D('',#193,#174,#175);
#163=AXIS2_PLACEMENT_3D('',#195,#176,#177);
#164=AXIS2_PLACEMENT_3D('',#196,#178,#179);
#165=AXIS2_PLACEMENT_3D('',#198,#180,$);
#166=AXIS2_PLACEMENT_3D('',#199,#181,#182);
#167=AXIS2_PLACEMENT_3D('',#200,#183,#184);
#168=AXIS2_PLACEMENT_3D('',#202,#185,#186);
#169=AXIS2_PLACEMENT_3D('',#204,#187,$);
#170=AXIS2_PLACEMENT_3D('',#205,#188,#189);
#171=DIRECTION('',(0.,1.,0.));
#172=DIRECTION('',(0.,1.,0.));
#173=DIRECTION('',(-0.4,0.,-4.89858719658941E-017));
#174=DIRECTION('',(0.,-1.,0.));
#175=DIRECTION('',(-0.5,0.,-6.12323399573676E-017));
#176=DIRECTION('',(0.,1.,0.));
#177=DIRECTION('',(0.5,0.,0.));
#178=DIRECTION('',(0.,-1.,0.));
#179=DIRECTION('',(0.5,0.,0.));
#180=DIRECTION('',(0.,1.,0.));
#181=DIRECTION('',(0.,-1.,0.));
#182=DIRECTION('',(0.2067,0.,0.));
#183=DIRECTION('',(0.,1.,0.));
#184=DIRECTION('',(0.2067,0.,0.));
#185=DIRECTION('',(0.,1.,0.));
#186=DIRECTION('',(0.2067,0.,0.));
#187=DIRECTION('',(0.,-1.,0.));
#188=DIRECTION('',(0.,1.,0.));
#189=DIRECTION('',(0.5,0.,0.));
#190=CARTESIAN_POINT('',(0.,0.1,0.));
#191=CARTESIAN_POINT('',(0.,0.,0.));
#192=CARTESIAN_POINT('',(0.4,0.,0.));
#193=CARTESIAN_POINT('',(0.,0.1,0.));
#194=CARTESIAN_POINT('',(0.5,0.1,1.22464679914735E-016));
#195=CARTESIAN_POINT('',(0.,0.,0.));
#196=CARTESIAN_POINT('',(0.,1.7,0.));
#197=CARTESIAN_POINT('',(0.5,1.7,0.));
#198=CARTESIAN_POINT('',(0.,0.,0.));
#199=CARTESIAN_POINT('',(0.,1.7,0.));
#200=CARTESIAN_POINT('',(0.,1.4067,0.));
#201=CARTESIAN_POINT('',(0.2067,1.4067,0.));
#202=CARTESIAN_POINT('',(0.,0.5,0.));
#203=CARTESIAN_POINT('',(0.2067,0.5,0.));
#204=CARTESIAN_POINT('',(0.,0.5,0.));
#205=CARTESIAN_POINT('',(0.,1.7,0.));
#206=TOROIDAL_SURFACE('',#160,0.4,0.1);
#207=CLOSED_SHELL('',(#154,#155,#156,#157,#158,#159));
#208=MANIFOLD_SOLID_BREP('',#207);
#209=ADVANCED_BREP_SHAPE_REPRESENTATION('',(#208),#103);
ENDSEC;
END-ISO-10303-21;
