ISO-10303-21;
HEADER;
/* Generated by software containing ST-Developer
 * from STEP Tools, Inc. (www.steptools.com) 
 */

FILE_DESCRIPTION(
/* description */ (''),
/* implementation_level */ '2;1');

FILE_NAME(
/* name */ 'U:\\AE\\Pied taraud\X\E9.stp',
/* time_stamp */ '2022-12-19T12:43:48+01:00',
/* author */ ('s.machard'),
/* organization */ (''),
/* preprocessor_version */ 'ST-DEVELOPER v18.1',
/* originating_system */ 'Autodesk Inventor 2022',
/* authorisation */ '');

FILE_SCHEMA (('AUTOMOTIVE_DESIGN { 1 0 10303 214 3 1 1 }'));
ENDSEC;

DATA;
#10=MECHANICAL_DESIGN_GEOMETRIC_PRESENTATION_REPRESENTATION('',(#13),#408);
#11=SHAPE_REPRESENTATION_RELATIONSHIP('SRR','None',#415,#12);
#12=ADVANCED_BREP_SHAPE_REPRESENTATION('',(#14),#407);
#13=STYLED_ITEM('',(#424),#14);
#14=MANIFOLD_SOLID_BREP('Solide1',#239);
#15=FACE_BOUND('',#46,.T.);
#16=FACE_BOUND('',#52,.T.);
#17=FACE_BOUND('',#58,.T.);
#18=PLANE('',#268);
#19=PLANE('',#269);
#20=PLANE('',#270);
#21=PLANE('',#271);
#22=PLANE('',#272);
#23=PLANE('',#273);
#24=PLANE('',#274);
#25=PLANE('',#275);
#26=PLANE('',#276);
#27=PLANE('',#277);
#28=PLANE('',#278);
#29=CYLINDRICAL_SURFACE('',#266,3.3235);
#30=FACE_OUTER_BOUND('',#43,.T.);
#31=FACE_OUTER_BOUND('',#44,.T.);
#32=FACE_OUTER_BOUND('',#45,.T.);
#33=FACE_OUTER_BOUND('',#47,.T.);
#34=FACE_OUTER_BOUND('',#48,.T.);
#35=FACE_OUTER_BOUND('',#49,.T.);
#36=FACE_OUTER_BOUND('',#50,.T.);
#37=FACE_OUTER_BOUND('',#51,.T.);
#38=FACE_OUTER_BOUND('',#53,.T.);
#39=FACE_OUTER_BOUND('',#54,.T.);
#40=FACE_OUTER_BOUND('',#55,.T.);
#41=FACE_OUTER_BOUND('',#56,.T.);
#42=FACE_OUTER_BOUND('',#57,.T.);
#43=EDGE_LOOP('',(#165,#166,#167,#168,#169));
#44=EDGE_LOOP('',(#170,#171,#172,#173,#174));
#45=EDGE_LOOP('',(#175,#176,#177,#178));
#46=EDGE_LOOP('',(#179));
#47=EDGE_LOOP('',(#180,#181,#182,#183));
#48=EDGE_LOOP('',(#184,#185,#186,#187));
#49=EDGE_LOOP('',(#188,#189,#190,#191));
#50=EDGE_LOOP('',(#192,#193,#194,#195));
#51=EDGE_LOOP('',(#196,#197,#198,#199));
#52=EDGE_LOOP('',(#200));
#53=EDGE_LOOP('',(#201,#202,#203,#204));
#54=EDGE_LOOP('',(#205,#206,#207,#208));
#55=EDGE_LOOP('',(#209,#210,#211,#212));
#56=EDGE_LOOP('',(#213,#214,#215,#216));
#57=EDGE_LOOP('',(#217,#218,#219,#220));
#58=EDGE_LOOP('',(#221,#222,#223,#224));
#59=LINE('',#346,#85);
#60=LINE('',#352,#86);
#61=LINE('',#357,#87);
#62=LINE('',#359,#88);
#63=LINE('',#361,#89);
#64=LINE('',#362,#90);
#65=LINE('',#366,#91);
#66=LINE('',#368,#92);
#67=LINE('',#370,#93);
#68=LINE('',#371,#94);
#69=LINE('',#374,#95);
#70=LINE('',#376,#96);
#71=LINE('',#377,#97);
#72=LINE('',#380,#98);
#73=LINE('',#382,#99);
#74=LINE('',#383,#100);
#75=LINE('',#385,#101);
#76=LINE('',#386,#102);
#77=LINE('',#391,#103);
#78=LINE('',#392,#104);
#79=LINE('',#393,#105);
#80=LINE('',#396,#106);
#81=LINE('',#397,#107);
#82=LINE('',#400,#108);
#83=LINE('',#401,#109);
#84=LINE('',#403,#110);
#85=VECTOR('',#285,3.8235);
#86=VECTOR('',#292,3.3235);
#87=VECTOR('',#297,10.);
#88=VECTOR('',#298,10.);
#89=VECTOR('',#299,10.);
#90=VECTOR('',#300,10.);
#91=VECTOR('',#303,10.);
#92=VECTOR('',#304,10.);
#93=VECTOR('',#305,10.);
#94=VECTOR('',#306,10.);
#95=VECTOR('',#309,10.);
#96=VECTOR('',#310,10.);
#97=VECTOR('',#311,10.);
#98=VECTOR('',#314,10.);
#99=VECTOR('',#315,10.);
#100=VECTOR('',#316,10.);
#101=VECTOR('',#319,10.);
#102=VECTOR('',#320,10.);
#103=VECTOR('',#325,10.);
#104=VECTOR('',#326,10.);
#105=VECTOR('',#327,10.);
#106=VECTOR('',#330,10.);
#107=VECTOR('',#331,10.);
#108=VECTOR('',#334,10.);
#109=VECTOR('',#335,10.);
#110=VECTOR('',#338,10.);
#111=CIRCLE('',#263,4.3235);
#112=CIRCLE('',#264,3.3235);
#113=CIRCLE('',#265,3.3235);
#114=CIRCLE('',#267,3.3235);
#115=VERTEX_POINT('',#343);
#116=VERTEX_POINT('',#345);
#117=VERTEX_POINT('',#347);
#118=VERTEX_POINT('',#351);
#119=VERTEX_POINT('',#355);
#120=VERTEX_POINT('',#356);
#121=VERTEX_POINT('',#358);
#122=VERTEX_POINT('',#360);
#123=VERTEX_POINT('',#364);
#124=VERTEX_POINT('',#365);
#125=VERTEX_POINT('',#367);
#126=VERTEX_POINT('',#369);
#127=VERTEX_POINT('',#373);
#128=VERTEX_POINT('',#375);
#129=VERTEX_POINT('',#379);
#130=VERTEX_POINT('',#381);
#131=VERTEX_POINT('',#389);
#132=VERTEX_POINT('',#390);
#133=VERTEX_POINT('',#395);
#134=VERTEX_POINT('',#399);
#135=EDGE_CURVE('',#115,#115,#111,.T.);
#136=EDGE_CURVE('',#115,#116,#59,.T.);
#137=EDGE_CURVE('',#116,#117,#112,.T.);
#138=EDGE_CURVE('',#117,#116,#113,.T.);
#139=EDGE_CURVE('',#117,#118,#60,.T.);
#140=EDGE_CURVE('',#118,#118,#114,.T.);
#141=EDGE_CURVE('',#119,#120,#61,.T.);
#142=EDGE_CURVE('',#120,#121,#62,.T.);
#143=EDGE_CURVE('',#121,#122,#63,.T.);
#144=EDGE_CURVE('',#122,#119,#64,.T.);
#145=EDGE_CURVE('',#123,#124,#65,.T.);
#146=EDGE_CURVE('',#123,#125,#66,.T.);
#147=EDGE_CURVE('',#126,#125,#67,.T.);
#148=EDGE_CURVE('',#124,#126,#68,.T.);
#149=EDGE_CURVE('',#124,#127,#69,.T.);
#150=EDGE_CURVE('',#128,#126,#70,.T.);
#151=EDGE_CURVE('',#127,#128,#71,.T.);
#152=EDGE_CURVE('',#127,#129,#72,.T.);
#153=EDGE_CURVE('',#130,#128,#73,.T.);
#154=EDGE_CURVE('',#129,#130,#74,.T.);
#155=EDGE_CURVE('',#129,#123,#75,.T.);
#156=EDGE_CURVE('',#125,#130,#76,.T.);
#157=EDGE_CURVE('',#131,#132,#77,.T.);
#158=EDGE_CURVE('',#131,#119,#78,.T.);
#159=EDGE_CURVE('',#132,#122,#79,.T.);
#160=EDGE_CURVE('',#132,#133,#80,.T.);
#161=EDGE_CURVE('',#133,#121,#81,.T.);
#162=EDGE_CURVE('',#133,#134,#82,.T.);
#163=EDGE_CURVE('',#134,#120,#83,.T.);
#164=EDGE_CURVE('',#134,#131,#84,.T.);
#165=ORIENTED_EDGE('',*,*,#135,.T.);
#166=ORIENTED_EDGE('',*,*,#136,.T.);
#167=ORIENTED_EDGE('',*,*,#137,.T.);
#168=ORIENTED_EDGE('',*,*,#138,.T.);
#169=ORIENTED_EDGE('',*,*,#136,.F.);
#170=ORIENTED_EDGE('',*,*,#137,.F.);
#171=ORIENTED_EDGE('',*,*,#138,.F.);
#172=ORIENTED_EDGE('',*,*,#139,.T.);
#173=ORIENTED_EDGE('',*,*,#140,.F.);
#174=ORIENTED_EDGE('',*,*,#139,.F.);
#175=ORIENTED_EDGE('',*,*,#141,.T.);
#176=ORIENTED_EDGE('',*,*,#142,.T.);
#177=ORIENTED_EDGE('',*,*,#143,.T.);
#178=ORIENTED_EDGE('',*,*,#144,.T.);
#179=ORIENTED_EDGE('',*,*,#135,.F.);
#180=ORIENTED_EDGE('',*,*,#145,.F.);
#181=ORIENTED_EDGE('',*,*,#146,.T.);
#182=ORIENTED_EDGE('',*,*,#147,.F.);
#183=ORIENTED_EDGE('',*,*,#148,.F.);
#184=ORIENTED_EDGE('',*,*,#149,.F.);
#185=ORIENTED_EDGE('',*,*,#148,.T.);
#186=ORIENTED_EDGE('',*,*,#150,.F.);
#187=ORIENTED_EDGE('',*,*,#151,.F.);
#188=ORIENTED_EDGE('',*,*,#152,.F.);
#189=ORIENTED_EDGE('',*,*,#151,.T.);
#190=ORIENTED_EDGE('',*,*,#153,.F.);
#191=ORIENTED_EDGE('',*,*,#154,.F.);
#192=ORIENTED_EDGE('',*,*,#155,.F.);
#193=ORIENTED_EDGE('',*,*,#154,.T.);
#194=ORIENTED_EDGE('',*,*,#156,.F.);
#195=ORIENTED_EDGE('',*,*,#146,.F.);
#196=ORIENTED_EDGE('',*,*,#156,.T.);
#197=ORIENTED_EDGE('',*,*,#153,.T.);
#198=ORIENTED_EDGE('',*,*,#150,.T.);
#199=ORIENTED_EDGE('',*,*,#147,.T.);
#200=ORIENTED_EDGE('',*,*,#140,.T.);
#201=ORIENTED_EDGE('',*,*,#157,.F.);
#202=ORIENTED_EDGE('',*,*,#158,.T.);
#203=ORIENTED_EDGE('',*,*,#144,.F.);
#204=ORIENTED_EDGE('',*,*,#159,.F.);
#205=ORIENTED_EDGE('',*,*,#160,.F.);
#206=ORIENTED_EDGE('',*,*,#159,.T.);
#207=ORIENTED_EDGE('',*,*,#143,.F.);
#208=ORIENTED_EDGE('',*,*,#161,.F.);
#209=ORIENTED_EDGE('',*,*,#162,.F.);
#210=ORIENTED_EDGE('',*,*,#161,.T.);
#211=ORIENTED_EDGE('',*,*,#142,.F.);
#212=ORIENTED_EDGE('',*,*,#163,.F.);
#213=ORIENTED_EDGE('',*,*,#164,.F.);
#214=ORIENTED_EDGE('',*,*,#163,.T.);
#215=ORIENTED_EDGE('',*,*,#141,.F.);
#216=ORIENTED_EDGE('',*,*,#158,.F.);
#217=ORIENTED_EDGE('',*,*,#164,.T.);
#218=ORIENTED_EDGE('',*,*,#157,.T.);
#219=ORIENTED_EDGE('',*,*,#160,.T.);
#220=ORIENTED_EDGE('',*,*,#162,.T.);
#221=ORIENTED_EDGE('',*,*,#145,.T.);
#222=ORIENTED_EDGE('',*,*,#149,.T.);
#223=ORIENTED_EDGE('',*,*,#152,.T.);
#224=ORIENTED_EDGE('',*,*,#155,.T.);
#225=CONICAL_SURFACE('',#262,3.8235,0.785398163397447);
#226=ADVANCED_FACE('',(#30),#225,.F.);
#227=ADVANCED_FACE('',(#31),#29,.F.);
#228=ADVANCED_FACE('',(#32,#15),#18,.T.);
#229=ADVANCED_FACE('',(#33),#19,.T.);
#230=ADVANCED_FACE('',(#34),#20,.T.);
#231=ADVANCED_FACE('',(#35),#21,.T.);
#232=ADVANCED_FACE('',(#36),#22,.T.);
#233=ADVANCED_FACE('',(#37,#16),#23,.T.);
#234=ADVANCED_FACE('',(#38),#24,.T.);
#235=ADVANCED_FACE('',(#39),#25,.T.);
#236=ADVANCED_FACE('',(#40),#26,.T.);
#237=ADVANCED_FACE('',(#41),#27,.T.);
#238=ADVANCED_FACE('',(#42,#17),#28,.T.);
#239=CLOSED_SHELL('',(#226,#227,#228,#229,#230,#231,#232,#233,#234,#235,
#236,#237,#238));
#240=DERIVED_UNIT_ELEMENT(#243,1.);
#241=DERIVED_UNIT_ELEMENT(#410,-3.);
#242=DIMENSIONAL_EXPONENTS(1.,0.,0.,0.,0.,0.,0.);
#243=(
CONVERSION_BASED_UNIT('gram',#245)
MASS_UNIT()
NAMED_UNIT(#242)
);
#244=(
MASS_UNIT()
NAMED_UNIT(*)
SI_UNIT(.KILO.,.GRAM.)
);
#245=MASS_MEASURE_WITH_UNIT(MASS_MEASURE(0.001),#244);
#246=DERIVED_UNIT((#240,#241));
#247=MEASURE_REPRESENTATION_ITEM('density measure',
POSITIVE_RATIO_MEASURE(2.71),#246);
#248=PROPERTY_DEFINITION_REPRESENTATION(#253,#250);
#249=PROPERTY_DEFINITION_REPRESENTATION(#254,#251);
#250=REPRESENTATION('material name',(#252),#407);
#251=REPRESENTATION('density',(#247),#407);
#252=DESCRIPTIVE_REPRESENTATION_ITEM('Alu 6060','Alu 6060');
#253=PROPERTY_DEFINITION('material property','material name',#417);
#254=PROPERTY_DEFINITION('material property','density of part',#417);
#255=DATE_TIME_ROLE('creation_date');
#256=APPLIED_DATE_AND_TIME_ASSIGNMENT(#257,#255,(#417));
#257=DATE_AND_TIME(#258,#259);
#258=CALENDAR_DATE(2022,19,12);
#259=LOCAL_TIME(0,0,0.,#260);
#260=COORDINATED_UNIVERSAL_TIME_OFFSET(0,0,.BEHIND.);
#261=AXIS2_PLACEMENT_3D('placement',#341,#279,#280);
#262=AXIS2_PLACEMENT_3D('',#342,#281,#282);
#263=AXIS2_PLACEMENT_3D('',#344,#283,#284);
#264=AXIS2_PLACEMENT_3D('',#348,#286,#287);
#265=AXIS2_PLACEMENT_3D('',#349,#288,#289);
#266=AXIS2_PLACEMENT_3D('',#350,#290,#291);
#267=AXIS2_PLACEMENT_3D('',#353,#293,#294);
#268=AXIS2_PLACEMENT_3D('',#354,#295,#296);
#269=AXIS2_PLACEMENT_3D('',#363,#301,#302);
#270=AXIS2_PLACEMENT_3D('',#372,#307,#308);
#271=AXIS2_PLACEMENT_3D('',#378,#312,#313);
#272=AXIS2_PLACEMENT_3D('',#384,#317,#318);
#273=AXIS2_PLACEMENT_3D('',#387,#321,#322);
#274=AXIS2_PLACEMENT_3D('',#388,#323,#324);
#275=AXIS2_PLACEMENT_3D('',#394,#328,#329);
#276=AXIS2_PLACEMENT_3D('',#398,#332,#333);
#277=AXIS2_PLACEMENT_3D('',#402,#336,#337);
#278=AXIS2_PLACEMENT_3D('',#404,#339,#340);
#279=DIRECTION('axis',(0.,0.,1.));
#280=DIRECTION('refdir',(1.,0.,0.));
#281=DIRECTION('center_axis',(0.,-1.,0.));
#282=DIRECTION('ref_axis',(-1.,0.,0.));
#283=DIRECTION('center_axis',(0.,-1.,0.));
#284=DIRECTION('ref_axis',(-1.,0.,0.));
#285=DIRECTION('',(-0.707106781186546,0.707106781186549,-8.65956056235492E-17));
#286=DIRECTION('center_axis',(0.,1.,0.));
#287=DIRECTION('ref_axis',(-1.,0.,0.));
#288=DIRECTION('center_axis',(0.,1.,0.));
#289=DIRECTION('ref_axis',(-1.,0.,0.));
#290=DIRECTION('center_axis',(0.,-1.,0.));
#291=DIRECTION('ref_axis',(1.,0.,0.));
#292=DIRECTION('',(0.,1.,0.));
#293=DIRECTION('center_axis',(0.,-1.,0.));
#294=DIRECTION('ref_axis',(1.,0.,0.));
#295=DIRECTION('center_axis',(0.,-1.,0.));
#296=DIRECTION('ref_axis',(0.,0.,-1.));
#297=DIRECTION('',(0.,0.,1.));
#298=DIRECTION('',(-1.,0.,0.));
#299=DIRECTION('',(0.,0.,-1.));
#300=DIRECTION('',(1.,0.,0.));
#301=DIRECTION('center_axis',(1.,0.,0.));
#302=DIRECTION('ref_axis',(0.,0.,-1.));
#303=DIRECTION('',(0.,0.,1.));
#304=DIRECTION('',(0.,1.,0.));
#305=DIRECTION('',(0.,0.,-1.));
#306=DIRECTION('',(0.,1.,0.));
#307=DIRECTION('center_axis',(0.,0.,1.));
#308=DIRECTION('ref_axis',(1.,0.,0.));
#309=DIRECTION('',(-1.,0.,0.));
#310=DIRECTION('',(1.,0.,0.));
#311=DIRECTION('',(0.,1.,0.));
#312=DIRECTION('center_axis',(-1.,0.,0.));
#313=DIRECTION('ref_axis',(0.,0.,1.));
#314=DIRECTION('',(0.,0.,-1.));
#315=DIRECTION('',(0.,0.,1.));
#316=DIRECTION('',(0.,1.,0.));
#317=DIRECTION('center_axis',(0.,0.,-1.));
#318=DIRECTION('ref_axis',(-1.,0.,0.));
#319=DIRECTION('',(1.,0.,0.));
#320=DIRECTION('',(-1.,0.,0.));
#321=DIRECTION('center_axis',(0.,1.,0.));
#322=DIRECTION('ref_axis',(0.,0.,1.));
#323=DIRECTION('center_axis',(0.,0.,-1.));
#324=DIRECTION('ref_axis',(1.,0.,0.));
#325=DIRECTION('',(-1.,0.,0.));
#326=DIRECTION('',(0.,-1.,0.));
#327=DIRECTION('',(0.,-1.,0.));
#328=DIRECTION('center_axis',(-1.,0.,0.));
#329=DIRECTION('ref_axis',(0.,0.,-1.));
#330=DIRECTION('',(0.,0.,1.));
#331=DIRECTION('',(0.,-1.,0.));
#332=DIRECTION('center_axis',(0.,0.,1.));
#333=DIRECTION('ref_axis',(-1.,0.,0.));
#334=DIRECTION('',(1.,0.,0.));
#335=DIRECTION('',(0.,-1.,0.));
#336=DIRECTION('center_axis',(1.,0.,0.));
#337=DIRECTION('ref_axis',(0.,0.,1.));
#338=DIRECTION('',(0.,0.,-1.));
#339=DIRECTION('center_axis',(0.,1.,0.));
#340=DIRECTION('ref_axis',(0.,0.,1.));
#341=CARTESIAN_POINT('',(0.,0.,0.));
#342=CARTESIAN_POINT('Origin',(0.,-2.5,0.));
#343=CARTESIAN_POINT('',(4.3235,-3.,5.29476043611358E-16));
#344=CARTESIAN_POINT('Origin',(0.,-3.,0.));
#345=CARTESIAN_POINT('',(3.3235,-2.,-4.07011363696623E-16));
#346=CARTESIAN_POINT('',(3.8235,-2.5,4.68243703653991E-16));
#347=CARTESIAN_POINT('',(-3.3235,-2.,-4.07011363696623E-16));
#348=CARTESIAN_POINT('Origin',(0.,-2.,0.));
#349=CARTESIAN_POINT('Origin',(0.,-2.,0.));
#350=CARTESIAN_POINT('Origin',(0.,25.9136645896019,0.));
#351=CARTESIAN_POINT('',(-3.3235,15.,-4.07011363696623E-16));
#352=CARTESIAN_POINT('',(-3.3235,25.9136645896019,-4.07011363696623E-16));
#353=CARTESIAN_POINT('Origin',(0.,15.,0.));
#354=CARTESIAN_POINT('Origin',(0.,-3.,0.));
#355=CARTESIAN_POINT('',(8.,-3.,-8.));
#356=CARTESIAN_POINT('',(8.,-3.,8.));
#357=CARTESIAN_POINT('',(8.,-3.,8.));
#358=CARTESIAN_POINT('',(-8.,-3.,8.));
#359=CARTESIAN_POINT('',(-8.,-3.,8.));
#360=CARTESIAN_POINT('',(-8.,-3.,-8.));
#361=CARTESIAN_POINT('',(-8.,-3.,-8.));
#362=CARTESIAN_POINT('',(8.,-3.,-8.));
#363=CARTESIAN_POINT('Origin',(7.,0.,7.));
#364=CARTESIAN_POINT('',(7.,0.,-7.));
#365=CARTESIAN_POINT('',(7.,0.,7.));
#366=CARTESIAN_POINT('',(7.,0.,3.5));
#367=CARTESIAN_POINT('',(7.,15.,-7.));
#368=CARTESIAN_POINT('',(7.,0.,-7.));
#369=CARTESIAN_POINT('',(7.,15.,7.));
#370=CARTESIAN_POINT('',(7.,15.,7.));
#371=CARTESIAN_POINT('',(7.,0.,7.));
#372=CARTESIAN_POINT('Origin',(-7.,0.,7.));
#373=CARTESIAN_POINT('',(-7.,0.,7.));
#374=CARTESIAN_POINT('',(-3.5,0.,7.));
#375=CARTESIAN_POINT('',(-7.,15.,7.));
#376=CARTESIAN_POINT('',(-7.,15.,7.));
#377=CARTESIAN_POINT('',(-7.,0.,7.));
#378=CARTESIAN_POINT('Origin',(-7.,0.,-7.));
#379=CARTESIAN_POINT('',(-7.,0.,-7.));
#380=CARTESIAN_POINT('',(-7.,0.,-3.5));
#381=CARTESIAN_POINT('',(-7.,15.,-7.));
#382=CARTESIAN_POINT('',(-7.,15.,-7.));
#383=CARTESIAN_POINT('',(-7.,0.,-7.));
#384=CARTESIAN_POINT('Origin',(7.,0.,-7.));
#385=CARTESIAN_POINT('',(3.5,0.,-7.));
#386=CARTESIAN_POINT('',(7.,15.,-7.));
#387=CARTESIAN_POINT('Origin',(0.,15.,0.));
#388=CARTESIAN_POINT('Origin',(-8.,0.,-8.));
#389=CARTESIAN_POINT('',(8.,0.,-8.));
#390=CARTESIAN_POINT('',(-8.,0.,-8.));
#391=CARTESIAN_POINT('',(8.,0.,-8.));
#392=CARTESIAN_POINT('',(8.,0.,-8.));
#393=CARTESIAN_POINT('',(-8.,0.,-8.));
#394=CARTESIAN_POINT('Origin',(-8.,0.,8.));
#395=CARTESIAN_POINT('',(-8.,0.,8.));
#396=CARTESIAN_POINT('',(-8.,0.,-8.));
#397=CARTESIAN_POINT('',(-8.,0.,8.));
#398=CARTESIAN_POINT('Origin',(8.,0.,8.));
#399=CARTESIAN_POINT('',(8.,0.,8.));
#400=CARTESIAN_POINT('',(-8.,0.,8.));
#401=CARTESIAN_POINT('',(8.,0.,8.));
#402=CARTESIAN_POINT('Origin',(8.,0.,-8.));
#403=CARTESIAN_POINT('',(8.,0.,8.));
#404=CARTESIAN_POINT('Origin',(0.,0.,0.));
#405=UNCERTAINTY_MEASURE_WITH_UNIT(LENGTH_MEASURE(0.01),#409,
'DISTANCE_ACCURACY_VALUE',
'Maximum model space distance between geometric entities at asserted c
onnectivities');
#406=UNCERTAINTY_MEASURE_WITH_UNIT(LENGTH_MEASURE(0.01),#409,
'DISTANCE_ACCURACY_VALUE',
'Maximum model space distance between geometric entities at asserted c
onnectivities');
#407=(
GEOMETRIC_REPRESENTATION_CONTEXT(3)
GLOBAL_UNCERTAINTY_ASSIGNED_CONTEXT((#405))
GLOBAL_UNIT_ASSIGNED_CONTEXT((#409,#411,#412))
REPRESENTATION_CONTEXT('','3D')
);
#408=(
GEOMETRIC_REPRESENTATION_CONTEXT(3)
GLOBAL_UNCERTAINTY_ASSIGNED_CONTEXT((#406))
GLOBAL_UNIT_ASSIGNED_CONTEXT((#409,#411,#412))
REPRESENTATION_CONTEXT('','3D')
);
#409=(
LENGTH_UNIT()
NAMED_UNIT(*)
SI_UNIT(.MILLI.,.METRE.)
);
#410=(
LENGTH_UNIT()
NAMED_UNIT(*)
SI_UNIT(.CENTI.,.METRE.)
);
#411=(
NAMED_UNIT(*)
PLANE_ANGLE_UNIT()
SI_UNIT($,.RADIAN.)
);
#412=(
NAMED_UNIT(*)
SI_UNIT($,.STERADIAN.)
SOLID_ANGLE_UNIT()
);
#413=SHAPE_DEFINITION_REPRESENTATION(#414,#415);
#414=PRODUCT_DEFINITION_SHAPE('',$,#417);
#415=SHAPE_REPRESENTATION('',(#261),#407);
#416=PRODUCT_DEFINITION_CONTEXT('part definition',#421,'design');
#417=PRODUCT_DEFINITION('Pied taraud\X\E9','Pied taraud\X\E9',#418,#416);
#418=PRODUCT_DEFINITION_FORMATION('',$,#423);
#419=PRODUCT_RELATED_PRODUCT_CATEGORY('Pied taraud\X\E9',
'Pied taraud\X\E9',(#423));
#420=APPLICATION_PROTOCOL_DEFINITION('international standard',
'automotive_design',2009,#421);
#421=APPLICATION_CONTEXT(
'Core Data for Automotive Mechanical Design Process');
#422=PRODUCT_CONTEXT('part definition',#421,'mechanical');
#423=PRODUCT('Pied taraud\X\E9','Pied taraud\X\E9',$,(#422));
#424=PRESENTATION_STYLE_ASSIGNMENT((#425));
#425=SURFACE_STYLE_USAGE(.BOTH.,#428);
#426=SURFACE_STYLE_RENDERING_WITH_PROPERTIES($,#432,(#427));
#427=SURFACE_STYLE_TRANSPARENT(0.);
#428=SURFACE_SIDE_STYLE('',(#429,#426));
#429=SURFACE_STYLE_FILL_AREA(#430);
#430=FILL_AREA_STYLE('',(#431));
#431=FILL_AREA_STYLE_COLOUR('',#432);
#432=COLOUR_RGB('',0.87843137254902,0.874509803921569,0.858823529411765);
ENDSEC;
END-ISO-10303-21;
