ISO-10303-21;
HEADER;
FILE_DESCRIPTION (( 'STEP AP203' ),
    '1' );
FILE_NAME ('RR23002A.STEP',
    '2023-09-16T13:53:59',
    ( 'Tatieu' ),
    ( '' ),
    'SwSTEP 2.0',
    'SolidWorks 2019',
    '' );
FILE_SCHEMA (( 'CONFIG_CONTROL_DESIGN' ));
ENDSEC;

DATA;
#1 = CARTESIAN_POINT ( 'NONE',  ( 0.6999999999999968470, 2.124762196520657818E-15, -17.00000000000000000 ) ) ;
#2 = DIRECTION ( 'NONE',  ( -0.9659258262890679791, 0.0000000000000000000, 0.2588190451025219052 ) ) ;
#3 = DIRECTION ( 'NONE',  ( 0.0000000000000000000, 0.0000000000000000000, 1.000000000000000000 ) ) ;
#4 = ORIENTED_EDGE ( 'NONE', *, *, #174, .F. ) ;
#5 = CYLINDRICAL_SURFACE ( 'NONE', #247, 17.00000000000000000 ) ;
#6 = CC_DESIGN_APPROVAL ( #153, ( #86 ) ) ;
#7 = AXIS2_PLACEMENT_3D ( 'NONE', #106, #210, #322 ) ;
#8 = DIRECTION ( 'NONE',  ( -1.000000000000000000, -0.0000000000000000000, -0.0000000000000000000 ) ) ;
#9 = EDGE_CURVE ( 'NONE', #285, #53, #96, .T. ) ;
#10 = CARTESIAN_POINT ( 'NONE',  ( 0.0000000000000000000, 2.326828918379970970E-15, -19.00000000000000000 ) ) ;
#11 = EDGE_CURVE ( 'NONE', #70, #343, #201, .T. ) ;
#12 = SECURITY_CLASSIFICATION_LEVEL ( 'unclassified' ) ;
#13 = CIRCLE ( 'NONE', #342, 19.00000000000000000 ) ;
#14 = DIRECTION ( 'NONE',  ( 0.0000000000000000000, 0.0000000000000000000, 1.000000000000000000 ) ) ;
#15 = EDGE_CURVE ( 'NONE', #126, #53, #129, .T. ) ;
#16 = DATE_AND_TIME ( #254, #199 ) ;
#17 = ORIENTED_EDGE ( 'NONE', *, *, #168, .F. ) ;
#18 = DATE_AND_TIME ( #258, #264 ) ;
#19 = EDGE_CURVE ( 'NONE', #53, #285, #325, .T. ) ;
#20 = EDGE_LOOP ( 'NONE', ( #152, #281, #257, #93 ) ) ;
#21 = EDGE_LOOP ( 'NONE', ( #336, #68 ) ) ;
#22 = EDGE_LOOP ( 'NONE', ( #114, #43, #124, #99 ) ) ;
#23 = ORIENTED_EDGE ( 'NONE', *, *, #45, .F. ) ;
#24 = DIRECTION ( 'NONE',  ( 0.0000000000000000000, 0.0000000000000000000, 1.000000000000000000 ) ) ;
#25 = LOCAL_TIME ( 15, 53, 59.00000000000000000, #87 ) ;
#26 = CARTESIAN_POINT ( 'NONE',  ( 0.6999999999999968470, 0.0000000000000000000, 0.0000000000000000000 ) ) ;
#27 = DIRECTION ( 'NONE',  ( 0.0000000000000000000, 0.0000000000000000000, 1.000000000000000000 ) ) ;
#28 = CARTESIAN_POINT ( 'NONE',  ( 0.0000000000000000000, 0.0000000000000000000, 0.0000000000000000000 ) ) ;
#29 = DIRECTION ( 'NONE',  ( -1.000000000000000000, -0.0000000000000000000, -0.0000000000000000000 ) ) ;
#30 = DIRECTION ( 'NONE',  ( 0.0000000000000000000, 0.0000000000000000000, 1.000000000000000000 ) ) ;
#31 = DIRECTION ( 'NONE',  ( -1.000000000000000000, -0.0000000000000000000, -0.0000000000000000000 ) ) ;
#32 = APPROVAL_PERSON_ORGANIZATION ( #62, #214, #149 ) ;
#33 = DIRECTION ( 'NONE',  ( -1.000000000000000000, -0.0000000000000000000, -0.0000000000000000000 ) ) ;
#34 = AXIS2_PLACEMENT_3D ( 'NONE', #102, #208, #319 ) ;
#35 = DIRECTION ( 'NONE',  ( -1.000000000000000000, -0.0000000000000000000, -0.0000000000000000000 ) ) ;
#36 = DATE_AND_TIME ( #276, #25 ) ;
#37 = ADVANCED_FACE ( 'NONE', ( #73, #178 ), #288, .F. ) ;
#38 = EDGE_CURVE ( 'NONE', #44, #126, #270, .T. ) ;
#39 = CIRCLE ( 'NONE', #347, 18.50000000000000000 ) ;
#40 = APPROVAL_ROLE ( '' ) ;
#41 = PRODUCT ( 'RR23002A', 'RR23002A', '', ( #225 ) ) ;
#42 = APPROVAL_ROLE ( '' ) ;
#43 = ORIENTED_EDGE ( 'NONE', *, *, #168, .T. ) ;
#44 = VERTEX_POINT ( 'NONE', #348 ) ;
#45 = EDGE_CURVE ( 'NONE', #44, #285, #104, .T. ) ;
#46 = EDGE_LOOP ( 'NONE', ( #148, #203 ) ) ;
#47 = DIRECTION ( 'NONE',  ( 0.0000000000000000000, 0.0000000000000000000, 1.000000000000000000 ) ) ;
#48 = CARTESIAN_POINT ( 'NONE',  ( 7.960204194457807803E-17, 19.00000000000000000, 0.0000000000000000000 ) ) ;
#49 = APPROVAL_PERSON_ORGANIZATION ( #169, #153, #40 ) ;
#50 = APPLICATION_CONTEXT ( 'configuration controlled 3d designs of mechanical parts and assemblies' ) ;
#51 = FACE_OUTER_BOUND ( 'NONE', #22, .T. ) ;
#52 = DIRECTION ( 'NONE',  ( 0.0000000000000000000, 0.0000000000000000000, 1.000000000000000000 ) ) ;
#53 = VERTEX_POINT ( 'NONE', #75 ) ;
#54 = CARTESIAN_POINT ( 'NONE',  ( 14.13397459621556962, 2.326828918379970970E-15, -19.00000000000000000 ) ) ;
#55 = DIRECTION ( 'NONE',  ( 0.0000000000000000000, 0.0000000000000000000, 1.000000000000000000 ) ) ;
#56 = CIRCLE ( 'NONE', #61, 17.00000000000000000 ) ;
#57 = FACE_OUTER_BOUND ( 'NONE', #344, .T. ) ;
#58 = PRODUCT_DEFINITION_SHAPE ( 'NONE', 'NONE',  #86 ) ;
#59 = DIRECTION ( 'NONE',  ( 0.0000000000000000000, 0.0000000000000000000, 1.000000000000000000 ) ) ;
#60 = FACE_OUTER_BOUND ( 'NONE', #227, .T. ) ;
#61 = AXIS2_PLACEMENT_3D ( 'NONE', #161, #271, #30 ) ;
#62 = PERSON_AND_ORGANIZATION ( #67, #243 ) ;
#63 = APPLICATION_PROTOCOL_DEFINITION ( 'international standard', 'config_control_design', 1994, #50 ) ;
#64 = CC_DESIGN_APPROVAL ( #107, ( #309 ) ) ;
#65 = DATE_TIME_ROLE ( 'creation_date' ) ;
#66 = VERTEX_POINT ( 'NONE', #179 ) ;
#67 = PERSON ( 'UNSPECIFIED', 'UNSPECIFIED', 'UNSPECIFIED', ('UNSPECIFIED'), ('UNSPECIFIED'), ('UNSPECIFIED') ) ;
#68 = ORIENTED_EDGE ( 'NONE', *, *, #290, .T. ) ;
#69 = MANIFOLD_SOLID_BREP ( 'Révolution1', #274 ) ;
#70 = VERTEX_POINT ( 'NONE', #289 ) ;
#71 = CARTESIAN_POINT ( 'NONE',  ( 16.00000000000000000, 0.0000000000000000000, 0.0000000000000000000 ) ) ;
#72 = APPLICATION_CONTEXT ( 'configuration controlled 3d designs of mechanical parts and assemblies' ) ;
#73 = FACE_BOUND ( 'NONE', #137, .T. ) ;
#74 = EDGE_LOOP ( 'NONE', ( #163, #204, #218, #4 ) ) ;
#75 = CARTESIAN_POINT ( 'NONE',  ( 1.592040838891561561E-16, 2.167624834490815357E-15, -17.69999999999999929 ) ) ;
#76 = VECTOR ( 'NONE', #117, 1000.000000000000000 ) ;
#77 = FACE_OUTER_BOUND ( 'NONE', #20, .T. ) ;
#78 = CC_DESIGN_DATE_AND_TIME_ASSIGNMENT ( #36, #167, ( #217 ) ) ;
#79 = LINE ( 'NONE', #187, #318 ) ;
#80 = ADVANCED_FACE ( 'NONE', ( #51 ), #245, .T. ) ;
#81 = DIRECTION ( 'NONE',  ( 0.0000000000000000000, 0.0000000000000000000, 1.000000000000000000 ) ) ;
#82 = CARTESIAN_POINT ( 'NONE',  ( 14.13397459621556962, 0.0000000000000000000, 0.0000000000000000000 ) ) ;
#83 = AXIS2_PLACEMENT_3D ( 'NONE', #215, #327, #81 ) ;
#84 = CARTESIAN_POINT ( 'NONE',  ( 1.592040838891561561E-16, 0.0000000000000000000, 17.69999999999999929 ) ) ;
#85 = DIRECTION ( 'NONE',  ( -1.000000000000000000, -0.0000000000000000000, -0.0000000000000000000 ) ) ;
#86 = PRODUCT_DEFINITION ( 'UNKNOWN', '', #309, #255 ) ;
#87 = COORDINATED_UNIVERSAL_TIME_OFFSET ( 1, 0, .AHEAD. ) ;
#88 = DIRECTION ( 'NONE',  ( 0.0000000000000000000, 0.0000000000000000000, 1.000000000000000000 ) ) ;
#89 = CIRCLE ( 'NONE', #134, 18.50000000000000000 ) ;
#90 = ADVANCED_FACE ( 'NONE', ( #132, #237 ), #349, .F. ) ;
#91 = CONICAL_SURFACE ( 'NONE', #182, 18.50000000000000000, 0.2617993877991506291 ) ;
#92 = COORDINATED_UNIVERSAL_TIME_OFFSET ( 1, 0, .AHEAD. ) ;
#93 = ORIENTED_EDGE ( 'NONE', *, *, #9, .T. ) ;
#94 = AXIS2_PLACEMENT_3D ( 'NONE', #251, #14, #120 ) ;
#95 = AXIS2_PLACEMENT_3D ( 'NONE', #158, #266, #27 ) ;
#96 = CIRCLE ( 'NONE', #189, 17.69999999999999929 ) ;
#97 = PERSON_AND_ORGANIZATION ( #67, #243 ) ;
#98 = ORIENTED_EDGE ( 'NONE', *, *, #206, .F. ) ;
#99 = ORIENTED_EDGE ( 'NONE', *, *, #176, .F. ) ;
#100 = EDGE_LOOP ( 'NONE', ( #17, #205, #260, #150 ) ) ;
#101 = AXIS2_PLACEMENT_3D ( 'NONE', #28, #133, #238 ) ;
#102 = CARTESIAN_POINT ( 'NONE',  ( 1.592040838891561561E-16, 0.0000000000000000000, 0.0000000000000000000 ) ) ;
#103 = EDGE_LOOP ( 'NONE', ( #166, #207, #312, #259 ) ) ;
#104 = LINE ( 'NONE', #209, #311 ) ;
#105 = UNCERTAINTY_MEASURE_WITH_UNIT (LENGTH_MEASURE( 1.000000000000000082E-05 ), #277, 'distance_accuracy_value', 'NONE');
#106 = CARTESIAN_POINT ( 'NONE',  ( 16.00000000000000000, 17.00000000000000000, 0.0000000000000000000 ) ) ;
#107 = APPROVAL ( #280, 'UNSPECIFIED' ) ;
#108 = LINE ( 'NONE', #213, #234 ) ;
#109 = ADVANCED_FACE ( 'NONE', ( #77 ), #212, .F. ) ;
#110 = FACE_OUTER_BOUND ( 'NONE', #173, .T. ) ;
#111 = CARTESIAN_POINT ( 'NONE',  ( 16.00000000000000000, 0.0000000000000000000, 17.00000000000000000 ) ) ;
#112 = APPROVAL_PERSON_ORGANIZATION ( #170, #107, #42 ) ;
#113 = CARTESIAN_POINT ( 'NONE',  ( 0.0000000000000000000, 0.0000000000000000000, 0.0000000000000000000 ) ) ;
#114 = ORIENTED_EDGE ( 'NONE', *, *, #305, .T. ) ;
#115 = DIRECTION ( 'NONE',  ( 0.0000000000000000000, 0.0000000000000000000, 1.000000000000000000 ) ) ;
#116 = ORIENTED_EDGE ( 'NONE', *, *, #11, .F. ) ;
#117 = DIRECTION ( 'NONE',  ( -1.000000000000000000, -0.0000000000000000000, -0.0000000000000000000 ) ) ;
#118 = SHAPE_DEFINITION_REPRESENTATION ( #58, #223 ) ;
#119 = COORDINATED_UNIVERSAL_TIME_OFFSET ( 1, 0, .AHEAD. ) ;
#120 = DIRECTION ( 'NONE',  ( 1.000000000000000000, 0.0000000000000000000, 0.0000000000000000000 ) ) ;
#121 = ADVANCED_FACE ( 'NONE', ( #159 ), #267, .F. ) ;
#122 = APPROVAL_DATE_TIME ( #16, #153 ) ;
#123 = APPROVAL_DATE_TIME ( #18, #107 ) ;
#124 = ORIENTED_EDGE ( 'NONE', *, *, #256, .F. ) ;
#125 = VECTOR ( 'NONE', #85, 1000.000000000000000 ) ;
#126 = VERTEX_POINT ( 'NONE', #1 ) ;
#127 = EDGE_LOOP ( 'NONE', ( #345, #314 ) ) ;
#128 = EDGE_CURVE ( 'NONE', #232, #126, #108, .T. ) ;
#129 = LINE ( 'NONE', #233, #324 ) ;
#130 = CIRCLE ( 'NONE', #145, 17.00000000000000000 ) ;
#131 = DIRECTION ( 'NONE',  ( -1.000000000000000000, -0.0000000000000000000, -0.0000000000000000000 ) ) ;
#132 = FACE_OUTER_BOUND ( 'NONE', #46, .T. ) ;
#133 = DIRECTION ( 'NONE',  ( -1.000000000000000000, -0.0000000000000000000, -0.0000000000000000000 ) ) ;
#134 = AXIS2_PLACEMENT_3D ( 'NONE', #71, #194, #301 ) ;
#135 = LINE ( 'NONE', #240, #286 ) ;
#136 = CARTESIAN_POINT ( 'NONE',  ( 16.00000000000000000, 0.0000000000000000000, 0.0000000000000000000 ) ) ;
#137 = EDGE_LOOP ( 'NONE', ( #317, #308 ) ) ;
#138 = DIRECTION ( 'NONE',  ( 0.0000000000000000000, 0.0000000000000000000, 1.000000000000000000 ) ) ;
#139 = CC_DESIGN_SECURITY_CLASSIFICATION ( #217, ( #309 ) ) ;
#140 =( GEOMETRIC_REPRESENTATION_CONTEXT ( 3 ) GLOBAL_UNCERTAINTY_ASSIGNED_CONTEXT ( ( #105 ) ) GLOBAL_UNIT_ASSIGNED_CONTEXT ( ( #277, #250, #222 ) ) REPRESENTATION_CONTEXT ( 'NONE', 'WORKASPACE' ) );
#141 = DIRECTION ( 'NONE',  ( 0.0000000000000000000, 0.0000000000000000000, 1.000000000000000000 ) ) ;
#142 = AXIS2_PLACEMENT_3D ( 'NONE', #193, #300, #59 ) ;
#143 = DIRECTION ( 'NONE',  ( 0.0000000000000000000, 0.0000000000000000000, 1.000000000000000000 ) ) ;
#144 = PERSON_AND_ORGANIZATION ( #67, #243 ) ;
#145 = AXIS2_PLACEMENT_3D ( 'NONE', #188, #296, #55 ) ;
#146 = COORDINATED_UNIVERSAL_TIME_OFFSET ( 1, 0, .AHEAD. ) ;
#147 = COORDINATED_UNIVERSAL_TIME_OFFSET ( 1, 0, .AHEAD. ) ;
#148 = ORIENTED_EDGE ( 'NONE', *, *, #305, .F. ) ;
#149 = APPROVAL_ROLE ( '' ) ;
#150 = ORIENTED_EDGE ( 'NONE', *, *, #293, .F. ) ;
#151 = AXIS2_PLACEMENT_3D ( 'NONE', #48, #155, #263 ) ;
#152 = ORIENTED_EDGE ( 'NONE', *, *, #15, .F. ) ;
#153 = APPROVAL ( #278, 'UNSPECIFIED' ) ;
#154 = CARTESIAN_POINT ( 'NONE',  ( 0.0000000000000000000, 0.0000000000000000000, 0.0000000000000000000 ) ) ;
#155 = DIRECTION ( 'NONE',  ( 1.000000000000000000, 0.0000000000000000000, 0.0000000000000000000 ) ) ;
#156 = LOCAL_TIME ( 15, 53, 59.00000000000000000, #92 ) ;
#157 = CIRCLE ( 'NONE', #142, 17.00000000000000000 ) ;
#158 = CARTESIAN_POINT ( 'NONE',  ( 16.00000000000000000, 0.0000000000000000000, 0.0000000000000000000 ) ) ;
#159 = FACE_OUTER_BOUND ( 'NONE', #103, .T. ) ;
#160 = LINE ( 'NONE', #269, #175 ) ;
#161 = CARTESIAN_POINT ( 'NONE',  ( 16.00000000000000000, 0.0000000000000000000, 0.0000000000000000000 ) ) ;
#162 = CYLINDRICAL_SURFACE ( 'NONE', #279, 19.00000000000000000 ) ;
#163 = ORIENTED_EDGE ( 'NONE', *, *, #290, .F. ) ;
#164 = FACE_OUTER_BOUND ( 'NONE', #100, .T. ) ;
#165 = CYLINDRICAL_SURFACE ( 'NONE', #181, 19.00000000000000000 ) ;
#166 = ORIENTED_EDGE ( 'NONE', *, *, #128, .F. ) ;
#167 = DATE_TIME_ROLE ( 'classification_date' ) ;
#168 = EDGE_CURVE ( 'NONE', #66, #172, #79, .T. ) ;
#169 = PERSON_AND_ORGANIZATION ( #67, #243 ) ;
#170 = PERSON_AND_ORGANIZATION ( #67, #243 ) ;
#171 = ORIENTED_EDGE ( 'NONE', *, *, #19, .T. ) ;
#172 = VERTEX_POINT ( 'NONE', #54 ) ;
#173 = EDGE_LOOP ( 'NONE', ( #98, #244, #171, #23 ) ) ;
#174 = EDGE_CURVE ( 'NONE', #231, #44, #160, .T. ) ;
#175 = VECTOR ( 'NONE', #29, 1000.000000000000000 ) ;
#176 = EDGE_CURVE ( 'NONE', #253, #338, #135, .T. ) ;
#177 = CARTESIAN_POINT ( 'NONE',  ( 1.592040838891561561E-16, 0.0000000000000000000, 0.0000000000000000000 ) ) ;
#178 = FACE_OUTER_BOUND ( 'NONE', #127, .T. ) ;
#179 = CARTESIAN_POINT ( 'NONE',  ( 16.00000000000000000, 2.296212748401287183E-15, -18.50000000000000000 ) ) ;
#180 = LOCAL_TIME ( 15, 53, 59.00000000000000000, #119 ) ;
#181 = AXIS2_PLACEMENT_3D ( 'NONE', #275, #35, #143 ) ;
#182 = AXIS2_PLACEMENT_3D ( 'NONE', #273, #33, #141 ) ;
#183 = CARTESIAN_POINT ( 'NONE',  ( 1.592040838891561561E-16, 0.0000000000000000000, 0.0000000000000000000 ) ) ;
#184 = ADVANCED_FACE ( 'NONE', ( #110 ), #252, .F. ) ;
#185 = CC_DESIGN_PERSON_AND_ORGANIZATION_ASSIGNMENT ( #144, #302, ( #217 ) ) ;
#186 = ORIENTED_EDGE ( 'NONE', *, *, #256, .T. ) ;
#187 = CARTESIAN_POINT ( 'NONE',  ( 16.00000000000000000, 2.265596578422603396E-15, -18.50000000000000000 ) ) ;
#188 = CARTESIAN_POINT ( 'NONE',  ( 0.6999999999999968470, 0.0000000000000000000, 0.0000000000000000000 ) ) ;
#189 = AXIS2_PLACEMENT_3D ( 'NONE', #177, #287, #47 ) ;
#190 = DIRECTION ( 'NONE',  ( -1.000000000000000000, -0.0000000000000000000, -0.0000000000000000000 ) ) ;
#191 = AXIS2_PLACEMENT_3D ( 'NONE', #183, #291, #52 ) ;
#192 = PRODUCT_RELATED_PRODUCT_CATEGORY ( 'detail', '', ( #41 ) ) ;
#193 = CARTESIAN_POINT ( 'NONE',  ( 16.00000000000000000, 0.0000000000000000000, 0.0000000000000000000 ) ) ;
#194 = DIRECTION ( 'NONE',  ( -1.000000000000000000, -0.0000000000000000000, -0.0000000000000000000 ) ) ;
#195 = CARTESIAN_POINT ( 'NONE',  ( 14.13397459621556962, 0.0000000000000000000, 19.00000000000000000 ) ) ;
#196 = PERSON_AND_ORGANIZATION ( #67, #243 ) ;
#197 = AXIS2_PLACEMENT_3D ( 'NONE', #221, #332, #88 ) ;
#198 = CALENDAR_DATE ( 2023, 16, 9 ) ;
#199 = LOCAL_TIME ( 15, 53, 59.00000000000000000, #146 ) ;
#200 = ORIENTED_EDGE ( 'NONE', *, *, #293, .T. ) ;
#201 = CIRCLE ( 'NONE', #303, 19.00000000000000000 ) ;
#202 = PERSON_AND_ORGANIZATION_ROLE ( 'design_supplier' ) ;
#203 = ORIENTED_EDGE ( 'NONE', *, *, #224, .F. ) ;
#204 = ORIENTED_EDGE ( 'NONE', *, *, #128, .T. ) ;
#205 = ORIENTED_EDGE ( 'NONE', *, *, #224, .T. ) ;
#206 = EDGE_CURVE ( 'NONE', #126, #44, #130, .T. ) ;
#207 = ORIENTED_EDGE ( 'NONE', *, *, #211, .F. ) ;
#208 = DIRECTION ( 'NONE',  ( -1.000000000000000000, -0.0000000000000000000, -0.0000000000000000000 ) ) ;
#209 = CARTESIAN_POINT ( 'NONE',  ( 1.592040838891561561E-16, 0.0000000000000000000, 17.69999999999999929 ) ) ;
#210 = DIRECTION ( 'NONE',  ( -1.000000000000000000, 0.0000000000000000000, -0.0000000000000000000 ) ) ;
#211 = EDGE_CURVE ( 'NONE', #231, #232, #56, .T. ) ;
#212 = CONICAL_SURFACE ( 'NONE', #191, 17.69999999999999929, 0.7853981633974500554 ) ;
#213 = CARTESIAN_POINT ( 'NONE',  ( 0.0000000000000000000, 2.081899558550500280E-15, -17.00000000000000000 ) ) ;
#214 = APPROVAL ( #333, 'UNSPECIFIED' ) ;
#215 = CARTESIAN_POINT ( 'NONE',  ( 1.592040838891561561E-16, 0.0000000000000000000, 0.0000000000000000000 ) ) ;
#216 = CARTESIAN_POINT ( 'NONE',  ( 16.00000000000000000, 2.081899558550500280E-15, -17.00000000000000000 ) ) ;
#217 = SECURITY_CLASSIFICATION ( '', '', #12 ) ;
#218 = ORIENTED_EDGE ( 'NONE', *, *, #206, .T. ) ;
#219 = DIRECTION ( 'NONE',  ( -1.000000000000000000, -0.0000000000000000000, -0.0000000000000000000 ) ) ;
#220 = LINE ( 'NONE', #330, #125 ) ;
#221 = CARTESIAN_POINT ( 'NONE',  ( 0.0000000000000000000, 0.0000000000000000000, 0.0000000000000000000 ) ) ;
#222 =( NAMED_UNIT ( * ) SI_UNIT ( $, .STERADIAN. ) SOLID_ANGLE_UNIT ( ) );
#223 = ADVANCED_BREP_SHAPE_REPRESENTATION ( 'RR23002A', ( #69, #94 ), #140 ) ;
#224 = EDGE_CURVE ( 'NONE', #66, #253, #39, .T. ) ;
#225 = MECHANICAL_CONTEXT ( 'NONE', #72, 'mechanical' ) ;
#226 = PERSON_AND_ORGANIZATION ( #67, #243 ) ;
#227 = EDGE_LOOP ( 'NONE', ( #236, #200, #282, #315 ) ) ;
#228 = PERSON_AND_ORGANIZATION ( #67, #243 ) ;
#229 = ORIENTED_EDGE ( 'NONE', *, *, #323, .T. ) ;
#230 = CC_DESIGN_PERSON_AND_ORGANIZATION_ASSIGNMENT ( #226, #337, ( #86 ) ) ;
#231 = VERTEX_POINT ( 'NONE', #111 ) ;
#232 = VERTEX_POINT ( 'NONE', #216 ) ;
#233 = CARTESIAN_POINT ( 'NONE',  ( 1.592040838891561561E-16, 2.167624834490815357E-15, -17.69999999999999929 ) ) ;
#234 = VECTOR ( 'NONE', #326, 1000.000000000000000 ) ;
#235 = DIRECTION ( 'NONE',  ( 0.0000000000000000000, 0.0000000000000000000, 1.000000000000000000 ) ) ;
#236 = ORIENTED_EDGE ( 'NONE', *, *, #323, .F. ) ;
#237 = FACE_BOUND ( 'NONE', #21, .T. ) ;
#238 = DIRECTION ( 'NONE',  ( 0.0000000000000000000, 0.0000000000000000000, 1.000000000000000000 ) ) ;
#239 = AXIS2_PLACEMENT_3D ( 'NONE', #26, #131, #235 ) ;
#240 = CARTESIAN_POINT ( 'NONE',  ( 16.00000000000000000, 0.0000000000000000000, 18.50000000000000000 ) ) ;
#241 = DIRECTION ( 'NONE',  ( -1.000000000000000000, -0.0000000000000000000, -0.0000000000000000000 ) ) ;
#242 = FACE_OUTER_BOUND ( 'NONE', #74, .T. ) ;
#243 = ORGANIZATION ( 'UNSPECIFIED', 'UNSPECIFIED', '' ) ;
#244 = ORIENTED_EDGE ( 'NONE', *, *, #15, .T. ) ;
#245 = CONICAL_SURFACE ( 'NONE', #95, 18.50000000000000000, 0.2617993877991506291 ) ;
#246 = CARTESIAN_POINT ( 'NONE',  ( 14.13397459621556962, 0.0000000000000000000, 0.0000000000000000000 ) ) ;
#247 = AXIS2_PLACEMENT_3D ( 'NONE', #113, #219, #329 ) ;
#248 = LINE ( 'NONE', #10, #76 ) ;
#249 = DATE_AND_TIME ( #335, #180 ) ;
#250 =( NAMED_UNIT ( * ) PLANE_ANGLE_UNIT ( ) SI_UNIT ( $, .RADIAN. ) );
#251 = CARTESIAN_POINT ( 'NONE',  ( 0.0000000000000000000, 0.0000000000000000000, 0.0000000000000000000 ) ) ;
#252 = CONICAL_SURFACE ( 'NONE', #83, 17.69999999999999929, 0.7853981633974500554 ) ;
#253 = VERTEX_POINT ( 'NONE', #328 ) ;
#254 = CALENDAR_DATE ( 2023, 16, 9 ) ;
#255 = DESIGN_CONTEXT ( 'detailed design', #50, 'design' ) ;
#256 = EDGE_CURVE ( 'NONE', #338, #172, #297, .T. ) ;
#257 = ORIENTED_EDGE ( 'NONE', *, *, #45, .T. ) ;
#258 = CALENDAR_DATE ( 2023, 16, 9 ) ;
#259 = ORIENTED_EDGE ( 'NONE', *, *, #38, .T. ) ;
#260 = ORIENTED_EDGE ( 'NONE', *, *, #176, .T. ) ;
#261 = ORIENTED_EDGE ( 'NONE', *, *, #299, .F. ) ;
#262 = DIRECTION ( 'NONE',  ( -1.000000000000000000, -0.0000000000000000000, -0.0000000000000000000 ) ) ;
#263 = DIRECTION ( 'NONE',  ( 0.0000000000000000000, 0.0000000000000000000, -1.000000000000000000 ) ) ;
#264 = LOCAL_TIME ( 15, 53, 59.00000000000000000, #147 ) ;
#265 = CC_DESIGN_PERSON_AND_ORGANIZATION_ASSIGNMENT ( #196, #307, ( #41 ) ) ;
#266 = DIRECTION ( 'NONE',  ( -1.000000000000000000, -0.0000000000000000000, -0.0000000000000000000 ) ) ;
#267 = CYLINDRICAL_SURFACE ( 'NONE', #101, 17.00000000000000000 ) ;
#268 = ADVANCED_FACE ( 'NONE', ( #57 ), #162, .T. ) ;
#269 = CARTESIAN_POINT ( 'NONE',  ( 0.0000000000000000000, 0.0000000000000000000, 17.00000000000000000 ) ) ;
#270 = CIRCLE ( 'NONE', #239, 17.00000000000000000 ) ;
#271 = DIRECTION ( 'NONE',  ( -1.000000000000000000, -0.0000000000000000000, -0.0000000000000000000 ) ) ;
#272 = CARTESIAN_POINT ( 'NONE',  ( 0.0000000000000000000, 0.0000000000000000000, 0.0000000000000000000 ) ) ;
#273 = CARTESIAN_POINT ( 'NONE',  ( 16.00000000000000000, 0.0000000000000000000, 0.0000000000000000000 ) ) ;
#274 = CLOSED_SHELL ( 'NONE', ( #80, #283, #184, #268, #320, #37, #109, #121, #90, #292 ) ) ;
#275 = CARTESIAN_POINT ( 'NONE',  ( 0.0000000000000000000, 0.0000000000000000000, 0.0000000000000000000 ) ) ;
#276 = CALENDAR_DATE ( 2023, 16, 9 ) ;
#277 =( LENGTH_UNIT ( ) NAMED_UNIT ( * ) SI_UNIT ( .MILLI., .METRE. ) );
#278 = APPROVAL_STATUS ( 'not_yet_approved' ) ;
#279 = AXIS2_PLACEMENT_3D ( 'NONE', #272, #31, #138 ) ;
#280 = APPROVAL_STATUS ( 'not_yet_approved' ) ;
#281 = ORIENTED_EDGE ( 'NONE', *, *, #38, .F. ) ;
#282 = ORIENTED_EDGE ( 'NONE', *, *, #299, .T. ) ;
#283 = ADVANCED_FACE ( 'NONE', ( #242 ), #5, .F. ) ;
#284 = CC_DESIGN_PERSON_AND_ORGANIZATION_ASSIGNMENT ( #228, #341, ( #309 ) ) ;
#285 = VERTEX_POINT ( 'NONE', #84 ) ;
#286 = VECTOR ( 'NONE', #2, 1000.000000000000000 ) ;
#287 = DIRECTION ( 'NONE',  ( -1.000000000000000000, -0.0000000000000000000, -0.0000000000000000000 ) ) ;
#288 = PLANE ( 'NONE',  #151 ) ;
#289 = CARTESIAN_POINT ( 'NONE',  ( 0.0000000000000000000, 0.0000000000000000000, 19.00000000000000000 ) ) ;
#290 = EDGE_CURVE ( 'NONE', #232, #231, #157, .T. ) ;
#291 = DIRECTION ( 'NONE',  ( -1.000000000000000000, -0.0000000000000000000, -0.0000000000000000000 ) ) ;
#292 = ADVANCED_FACE ( 'NONE', ( #164 ), #91, .T. ) ;
#293 = EDGE_CURVE ( 'NONE', #172, #338, #13, .T. ) ;
#294 = CC_DESIGN_DATE_AND_TIME_ASSIGNMENT ( #310, #65, ( #86 ) ) ;
#295 = DIRECTION ( 'NONE',  ( -0.9659258262890679791, 3.169619151431779116E-17, -0.2588190451025219052 ) ) ;
#296 = DIRECTION ( 'NONE',  ( -1.000000000000000000, -0.0000000000000000000, -0.0000000000000000000 ) ) ;
#297 = CIRCLE ( 'NONE', #313, 19.00000000000000000 ) ;
#298 = DIRECTION ( 'NONE',  ( 0.0000000000000000000, 0.0000000000000000000, 1.000000000000000000 ) ) ;
#299 = EDGE_CURVE ( 'NONE', #338, #70, #220, .T. ) ;
#300 = DIRECTION ( 'NONE',  ( -1.000000000000000000, -0.0000000000000000000, -0.0000000000000000000 ) ) ;
#301 = DIRECTION ( 'NONE',  ( 0.0000000000000000000, 0.0000000000000000000, 1.000000000000000000 ) ) ;
#302 = PERSON_AND_ORGANIZATION_ROLE ( 'classification_officer' ) ;
#303 = AXIS2_PLACEMENT_3D ( 'NONE', #154, #262, #24 ) ;
#304 = CARTESIAN_POINT ( 'NONE',  ( 0.0000000000000000000, 2.326828918379970970E-15, -19.00000000000000000 ) ) ;
#305 = EDGE_CURVE ( 'NONE', #253, #66, #89, .T. ) ;
#306 = APPLICATION_PROTOCOL_DEFINITION ( 'international standard', 'config_control_design', 1994, #72 ) ;
#307 = PERSON_AND_ORGANIZATION_ROLE ( 'design_owner' ) ;
#308 = ORIENTED_EDGE ( 'NONE', *, *, #19, .F. ) ;
#309 = PRODUCT_DEFINITION_FORMATION_WITH_SPECIFIED_SOURCE ( 'ANY', '', #41, .NOT_KNOWN. ) ;
#310 = DATE_AND_TIME ( #198, #156 ) ;
#311 = VECTOR ( 'NONE', #321, 1000.000000000000000 ) ;
#312 = ORIENTED_EDGE ( 'NONE', *, *, #174, .T. ) ;
#313 = AXIS2_PLACEMENT_3D ( 'NONE', #82, #190, #298 ) ;
#314 = ORIENTED_EDGE ( 'NONE', *, *, #334, .T. ) ;
#315 = ORIENTED_EDGE ( 'NONE', *, *, #334, .F. ) ;
#316 = CC_DESIGN_PERSON_AND_ORGANIZATION_ASSIGNMENT ( #97, #202, ( #309 ) ) ;
#317 = ORIENTED_EDGE ( 'NONE', *, *, #9, .F. ) ;
#318 = VECTOR ( 'NONE', #295, 1000.000000000000000 ) ;
#319 = DIRECTION ( 'NONE',  ( 0.0000000000000000000, 0.0000000000000000000, 1.000000000000000000 ) ) ;
#320 = ADVANCED_FACE ( 'NONE', ( #60 ), #165, .T. ) ;
#321 = DIRECTION ( 'NONE',  ( -0.7071067811865463515, 0.0000000000000000000, 0.7071067811865487940 ) ) ;
#322 = DIRECTION ( 'NONE',  ( -0.0000000000000000000, 0.0000000000000000000, 1.000000000000000000 ) ) ;
#323 = EDGE_CURVE ( 'NONE', #172, #343, #248, .T. ) ;
#324 = VECTOR ( 'NONE', #346, 1000.000000000000000 ) ;
#325 = CIRCLE ( 'NONE', #34, 17.69999999999999929 ) ;
#326 = DIRECTION ( 'NONE',  ( -1.000000000000000000, -0.0000000000000000000, -0.0000000000000000000 ) ) ;
#327 = DIRECTION ( 'NONE',  ( -1.000000000000000000, -0.0000000000000000000, -0.0000000000000000000 ) ) ;
#328 = CARTESIAN_POINT ( 'NONE',  ( 16.00000000000000000, 0.0000000000000000000, 18.50000000000000000 ) ) ;
#329 = DIRECTION ( 'NONE',  ( 0.0000000000000000000, 0.0000000000000000000, 1.000000000000000000 ) ) ;
#330 = CARTESIAN_POINT ( 'NONE',  ( 0.0000000000000000000, 0.0000000000000000000, 19.00000000000000000 ) ) ;
#331 = APPROVAL_DATE_TIME ( #249, #214 ) ;
#332 = DIRECTION ( 'NONE',  ( -1.000000000000000000, -0.0000000000000000000, -0.0000000000000000000 ) ) ;
#333 = APPROVAL_STATUS ( 'not_yet_approved' ) ;
#334 = EDGE_CURVE ( 'NONE', #343, #70, #340, .T. ) ;
#335 = CALENDAR_DATE ( 2023, 16, 9 ) ;
#336 = ORIENTED_EDGE ( 'NONE', *, *, #211, .T. ) ;
#337 = PERSON_AND_ORGANIZATION_ROLE ( 'creator' ) ;
#338 = VERTEX_POINT ( 'NONE', #195 ) ;
#339 = CC_DESIGN_APPROVAL ( #214, ( #217 ) ) ;
#340 = CIRCLE ( 'NONE', #197, 19.00000000000000000 ) ;
#341 = PERSON_AND_ORGANIZATION_ROLE ( 'creator' ) ;
#342 = AXIS2_PLACEMENT_3D ( 'NONE', #246, #8, #115 ) ;
#343 = VERTEX_POINT ( 'NONE', #304 ) ;
#344 = EDGE_LOOP ( 'NONE', ( #186, #229, #116, #261 ) ) ;
#345 = ORIENTED_EDGE ( 'NONE', *, *, #11, .T. ) ;
#346 = DIRECTION ( 'NONE',  ( -0.7071067811865463515, 8.659560562354948882E-17, -0.7071067811865487940 ) ) ;
#347 = AXIS2_PLACEMENT_3D ( 'NONE', #136, #241, #3 ) ;
#348 = CARTESIAN_POINT ( 'NONE',  ( 0.6999999999999968470, 0.0000000000000000000, 17.00000000000000000 ) ) ;
#349 = PLANE ( 'NONE',  #7 ) ;
ENDSEC;
END-ISO-10303-21;
